Manic Street Preachers - Nostalgic Pushead
Tabbed by Phil Payton ([email protected])

Intro:
e --------------------------------
b -----6-8-8b10-10-10-10-8b10r8-6-
g -5h7----------------------------
d --------------------------------
a --------------------------------
e --------------------------------

e --------------------------------
b -----6-8-8b10-10-10-10-8b10r8-6-
g -5h7----------------------------
d --------------------------------
a --------------------------------
e --------------------------------

Verse 1:

e -2-----3---------------1----------------0------------------2-
b -3-----3---------------1----------------1------------------3-
g -2-----0---------------2----------------0------------------2-
d -0-----0---------------3----------------2------------------0-
a -0-----2---------------3----------------3------------------0-
e -x-----3---------------1----------------3------------------x-
I am the raping sunglass gaze of sweating man and escort agencies

e ------3--------------------1------0-
b ------3--------------------1------1-
g ------0--------------------2------0-
d ------0--------------------3------2-
a ------2--------------------3------3-
e ------3--------------------1------3-
60s alienation the anthem of care

e -2--------3-------------------1-------------------------
b -3--------3-------------------1------5------------------
g -2--------0-------------------2------7b9-9-9-9-b9r7-5-7-
d -0--------0-------------------3-------------------------
a -0--------2-------------------3-------------------------
e -x--------3-------------------1-------------------------
Now a knife constantly slashing eyelids

Chorus:
e -------------------------------
b -----7---------7---------7-----
g -5s7---7-5-5s7---7-5-5s7---7-5-
d -------------------------------
a -------------------------------
e -------------------------------
Slavery to the beat slavery to the chord slavery to the pleasure

e -----------------
b -----------------
g -3-0-3-0-3-0-3-0-
d -----------------
a -----------------
e -----------------
Slavery to the God

e -------------------------------
b -----7---------7---------7-----
g -5s7---7-5-5s7---7-5-5s7---7-5-
d -------------------------------
a -------------------------------
e -------------------------------
Slavery to the beat slavery to the chord slavery to the pleasure

e -----------------
b -----------------
g -3-0-3-0-3-0-3-0-
d -----------------
a -----------------
e -----------------
Slavery to the God

Bridge:
e --------------
b --------------
g --------------
d --------------
a -11-9-7-5-9-3-
e --------------
They dig their new scene at the parties

e --------------
b --------------
g --------------
d --------------
a -11-9-7-5-9-3-
e --------------
Where stonehenge is worshipped and drugs diety

e --------------
b --------------
g --------------
d --------------
a -11-9-7-5-9-3-
e --------------
Vicarious thrills rerun their youth

e -------------------------------------------
b ------------------------------------------- 
g -7-7-7-7-7-7-7-10-8-7-7-7-7-7-7-7-7-7-10-8-
d -7-7-7-7-7-7-7-10-8-7-7-7-7-7-7-7-7-7-10-8-
a -5-5-5-5-5-5-5-8--6-5-5-5-5-5-5-5-5-5-8--6-
e -------------------------------------------
We follow we have no voice of the dead

Verse 2:

e -2-----3---------------1----------------0------------------2-
b -3-----3---------------1----------------1------------------3-
g -2-----0---------------2----------------0------------------2-
d -0-----0---------------3----------------2------------------0-
a -0-----2---------------3----------------3------------------0-
e -x-----3---------------1----------------3------------------x-
Radio nostalgia is radio death I wanna cover diamonds on my wife

e ------3--------------------1------0-
b ------3--------------------1------1-
g ------0--------------------2------0-
d ------0--------------------3------2-
a ------2--------------------3------3-
e ------3--------------------1------3-
Hard rock nostalgia the Stones on CD

e -2--------3-------------------1-------------------------
b -3--------3-------------------1------5------------------
g -2--------0-------------------2------7b9-9-9-9-b9r7-5-7-
d -0--------0-------------------3-------------------------
a -0--------2-------------------3-------------------------
e -x--------3-------------------1-------------------------
Tranquilised icons for the sweet paralysed

Chorus:
e -------------------------------
b -----7---------7---------7-----
g -5s7---7-5-5s7---7-5-5s7---7-5-
d -------------------------------
a -------------------------------
e -------------------------------
Slavery to the beat slavery to the chord slavery to the pleasure

e -----------------
b -----------------
g -3-0-3-0-3-0-3-0-
d -----------------
a -----------------
e -----------------
Slavery to the God

e -------------------------------
b -----7---------7---------7-----
g -5s7---7-5-5s7---7-5-5s7---7-5-
d -------------------------------
a -------------------------------
e -------------------------------
Slavery to the beat slavery to the chord slavery to the pleasure

e -----------------
b -----------------
g -3-0-3-0-3-0-3-0-
d -----------------
a -----------------
e -----------------
Slavery to the God

Bridge:
e --------------
b --------------
g --------------
d --------------
a -11-9-7-5-9-3-
e --------------
So cool the new sound of the decade

e --------------
b --------------
g --------------
d --------------
a -11-9-7-5-9-3-
e --------------
Think it's so fresh not post Elvis still

e --------------
b --------------
g --------------
d --------------
a -11-9-7-5-9-3-
e --------------
All taste is nothing all pictures blowdried

e -------------------------------------------
b ------------------------------------------- 
g -7-7-7-7-7-7-7-10-8-7-7-7-7-7-7-7-7-7-10-8-
d -7-7-7-7-7-7-7-10-8-7-7-7-7-7-7-7-7-7-10-8-
a -5-5-5-5-5-5-5-8--6-5-5-5-5-5-5-5-5-5-8--6-
e -------------------------------------------
Rebellion it always sells at a profit

Verse 3:

e -2-----3---------------1----------------0------------------2-
b -3-----3---------------1----------------1------------------3-
g -2-----0---------------2----------------0------------------2-
d -0-----0---------------3----------------2------------------0-
a -0-----2---------------3----------------3------------------0-
e -x-----3---------------1----------------3------------------x-
I am a face of fashion in Soho square my tie is Paul Smith or Gaultier

e ------3--------------------1------0-
b ------3--------------------1------1-
g ------0--------------------2------0-
d ------0--------------------3------2-
a ------2--------------------3------3-
e ------3--------------------1------3-
My cheeks are blood red as my favourite port

e -2--------3-------------------1-------------------------
b -3--------3-------------------1------5------------------
g -2--------0-------------------2------7b9-9-9-9-b9r7-5-7-
d -0--------0-------------------3-------------------------
a -0--------2-------------------3-------------------------
e -x--------3-------------------1-------------------------
But hey cocaine keeps cholestrol at bay

Chorus:
e -------------------------------
b -----7---------7---------7-----
g -5s7---7-5-5s7---7-5-5s7---7-5-
d -------------------------------
a -------------------------------
e -------------------------------
Slavery to the beat slavery to the chord slavery to the pleasure

e -----------------
b -----------------
g -3-0-3-0-3-0-3-0-
d -----------------
a -----------------
e -----------------
Slavery to the God

e -------------------------------
b -----7---------7---------7-----
g -5s7---7-5-5s7---7-5-5s7---7-5-
d -------------------------------
a -------------------------------
e -------------------------------
Slavery to the beat slavery to the chord slavery to the pleasure

e -----------------
b -----------------
g -3-0-3-0-3-0-3-0-
d -----------------
a -----------------
e -----------------
Slavery to the God 

e -------------------------------
b -----7---------7---------7-----
g -5s7---7-5-5s7---7-5-5s7---7-5-
d -------------------------------
a -------------------------------
e -------------------------------
Some God

e -----------------
b -----------------
g -3-0-3-0-3-0-3-0-
d -----------------
a -----------------
e -----------------

Solo:
e ----------------------------------------------------------
b ----------------------------------------------------------
g -------------------------------5--------------------------
d ---------------------------------5------------------------
a -x-x-x-x-x-x-x-x-x-x-x-x-0-3-5-----13-12-10-8-7-8-7-8-7-8-
e ----------------------------------------------------------

e ------------------------------
b ------------------------------
g ---5--------------------------
d -----5------------------------
a -5-----13-12-10-8-7-8-7-8-7-8-
e ------------------------------

e ------------------------------
b ------------------------------
g ---5--------------------------
d -----5------------------------
a -5-----13-12-10-8-7-8-7-8-7-8-
e ------------------------------

e ------------------------------
b ------------------------------
g ---5--------------------------
d -----5------------------------
a -5-----13-12-10-8-7-8-7-8-7-8-
e ------------------------------

e --------------------------------------------------------------
b ----------------------------------8h10b11-8h10b11-8b10r8------
g -s7-9-10--12-9-10--12-9h10p9-7-10------------------------10-7-
d --------------------------------------------------------------
a --------------------------------------------------------------
e --------------------------------------------------------------

e --------------------------------------------------------------
b -5-5h6p5---5--------------------------------------------------
g ---------7---7-5---5h7p5---5-------------------5---5-7-5-7-10-
d -----------------7-------7---7-5---5h7p5---5h7---7------------
a ---------------------------------7-------7--------------------
e --------------------------------------------------------------

e ----------------
b ----------------
g -14-14-14s9-----
d ------------(7)-
a ----------------
e ----------------


Текст, аккорды и табулатура для песни "Nostalgic Pushead", исполняет "Manic Street Preachers".
Используемые в песне аккорды можно найти в разделе Как брать аккорды. Аккорды для шестиструнной гитары. Другие песни можно найти на нашем сайте, воспользовавшись алфавитным указателем вверху страницы.


 
Ошибка в тексте? Выделите ошибку и нажмите Ctrl+Enter