Manic Street Preachers - Nostalgic Pushead
Album: Gold Against The Soul
transcribed by chris clarke


Intro
=====
e :----------------------------------------------------------------------------|
b :-------------------10-10-10-10-10-8-6-------------------10-10-10-10-10-8-6--|
g :-5-7---10---12---------------------------5-7---10---12----------------------|
d :----------------------------------------------------------------------------|
a :----------------------------------------------------------------------------|
e :----------------------------------------------------------------------------|

VERSE
=====
D        G               F                C               D             G                       F     C
I am the raping sunglass gaze of sweating man and escort agencies, 60's alienation the anthem of care.

D           G                    F         C
Now a knife constantly slashing eyelids...

CHORUS
======
        D       C             D      C              D      C         Bb
Slavery to the beat, slavery to the chord, slavery to the pleasure, slavery to the God

BRIDGE
======
e :------------------------------------------------------------------------------------------------|
b :------------------------------------------------------------------------------------------------|
g :------------------------------------------------------------------------------------------------|
d :----------------------------------------------7-7--7-7-7--7-7-7--10-8-7--7-7--7-7--7-7-7--10-8--|
a :-11-9-7-5-9-3---11-9-7-5-9-3---11-9-7-5-9-3---5-5--5-5-5--5-5-5--8-6--5--5-5-5-5--5-5-5---8--6--|
e :------------------------------------------------------------------------------------------------|
  They dig the new scene and their parties... etc

VERSE 2 (as before)

CHORUS 2 (as before)

BRIDGE 2 (as before)

VERSE 3 (as before)

CHORUS (as before)

SOLO:
e :--------------------------------------------------------------------------|
b :--------------------------------------------------------------------------|
g :--------------------------------------------------------------------------|
d :--------------------------------------------------------------------------|
a :-x-x-x-x-x-x-x-x-x----0-3-5-5-5-5-13-12-8-7-8-7----5-5-5-5-13-12-8-7-8-7--|
e :--------------------------------------------------------------------------|

e :-------------------------------------------------------------|
b :-------------------------------------------------------------|
g :-------------------------------------------------------------|
d :-------------------------------------------------------------|
a :-5-5-5-5-13-12-8-7-8-7----5-5-5-5-13-12-8-7-8-7--------------|
e :-------------------------------------------------------------|

e :-------------------------------------------------------------------------------|
b :-----------------------------8-10-11-8-10-11-10-8-6-8-6-5-6-8-10---------------|
g :~7----7-7-9-10-5--7-10-----------------------------------------------15-14-----|
d :-------------------------------------------------------------------------------|
a :-------------------------------------------------------------------------------|
e :-------------------------------------------------------------------------------|

Note: Tune the e string down 5 semitones while the string rings on 14 so that it sounds as 9.

e :---------------------------------------------------------| |
b :---------------------------------------------------------| |
g :-14------------------------------------------------------| |
d :--------------------------------------------------x7x----| |
a :---------------------------------------------------------| |
e :---------------------------------------------------------| |


Текст, аккорды и табулатура для песни "Nostalgic Pushead", исполняет "Manic Street Preachers".
Используемые в песне аккорды можно найти в разделе Как брать аккорды. Аккорды для шестиструнной гитары. Другие песни можно найти на нашем сайте, воспользовавшись алфавитным указателем вверху страницы.


 
Ошибка в тексте? Выделите ошибку и нажмите Ctrl+Enter