#----------------------------------PLEASE NOTE---------------------------------#
#This file is the author's own work and represents their interpretation of the #
#song. You may only use this file for private study, scholarship, or research. #
#------------------------------------------------------------------------------#

Manic Street Preachers - No Surface All Feeling
 Of 1996's 'Everything Must Go'
Tabbed by Custy - [email protected]

Couldn't find a tab for the intro for this anywhere on the net so i decided to
transcribe it myself. Pretty simple stuff, but only really sounds good with 2
guitars and of course a bass. Enjoy :)...

E 	- 022100
F#m 	- 244222
Am	- 577555
G#maddb6- x66400
F#m11	- x44200
Asus2	- x02200
E5	- 02xxxx
G#m	- x6640x

b = bend
P = pulloff
h = hammeron

In the intro and chorus the #1 means you play that the first time round repeat to
beggining and replace #1 for #2

-Intro- (High Distortion) 
  E                                                                       F#m
e|--------16----------------14----------------12----------------11----------------9-------|
B|----12------12--------12------12--------12------12--------12------12--------10-----10---|
G|13-------------13-13-------------13-13-------------13-13-------------13-11------------13|
D|----------------------------------------------------------------------------------------|
A|----------------------------------------------------------------------------------------|
E|----------------------------------------------------------------------------------------|

                                         #1                                   #2
                        |----------------------------------|-----------------------------------|
              Am
e|--9--------------------12---------15p12-12--------------


Текст, аккорды и табулатура для песни "No Surface All Feeling", исполняет "Manic Street Preachers".
Используемые в песне аккорды можно найти в разделе Как брать аккорды. Аккорды для шестиструнной гитары. Другие песни можно найти на нашем сайте, воспользовавшись алфавитным указателем вверху страницы.


 
Ошибка в тексте? Выделите ошибку и нажмите Ctrl+Enter