Manic Street Preachers
Interiors (song for Willem de Kooning)
Tabbed by Weasel-boy
Verse (X4)
G----------------|----------------|----------------|----------------|
D4-4-0-2-4---4---|4-4-0-2-4---4---|----------------|----------------|
A----------------|----------------|2-2---0-2---2---|2-2---0-2---2---|
E----------------|----------------|----4-----------|----4-----------|
 
Bridge
G----------------|----------------|----------------|----------------|
D----------------|0000000000000000|2222222222222222|2/4-------------|
A4444444444444444|----------------|----------------|---5/7-4-4/9--|
E----------------|----------------|----------------|----------------|
 
Chorus (X2)
G----------------|----------------|----------------|----------------|
D----------------|----------------|----------------|----------------|
A5---5---55555555|----------------|5---5---55555555|----------------|
E----------------|5---5---55555555|----------------|5---5---55555555|
 
Solo
G----------------|----------------|----------------|----------------|
D0000000000000000|----------------|----------------|----------------|
A----------------|4444444444444444|0000000000000000|----------------|
E----------------|----------------|----------------|0000000000000000|
 
This is how I play it.  It may not be completely accurate.
Listen to the album to get it right.
If you have any questions or suggestions e-mail me @
[email protected] 


Текст, аккорды и табулатура для песни "Interiors", исполняет "Manic Street Preachers".
Используемые в песне аккорды можно найти в разделе Как брать аккорды. Аккорды для шестиструнной гитары. Другие песни можно найти на нашем сайте, воспользовавшись алфавитным указателем вверху страницы.


 
Ошибка в тексте? Выделите ошибку и нажмите Ctrl+Enter