**************************************************************
*** MANIC STREET PREACHERS - *********************************
*** IF YOU TOLERATE THIS (THEN YOUR CHILDREN WILL BE NEXT) ***
**************************************************************

Normal tuning - E, A, D, G

--------------------------------------------------------------

*INTRO*

|--------------|
|--------------|
|---------/2-2-|
|--------------|

|--------------------|--------------------|-------------------|---------------------|
|--------------------|--------------------|-------------------|---------------------|
|--------------------|--------------------|-------------------|-3---3----2---2--2--|
|-5---5---5---5--5--|-0---0---0---0--7--|-1---1---1---1--1--|---------------------|


*VERSE 1*

|--------------------|--------------------|-------------------|------------------------|
|--------------------|--------------------|-------------------|------------------------|
|--------------------|--------------------|-------------------|-3---3----X---2--2--2--|
|-5---5---5---5--5--|-0---0---0---0--7--|-1---1---1---1--1--|------------------------|

|-------------------|-------------------|-----------------------|-----------------------|
|-------------------|-------------------|-----------------------|-----------------------|
|----------------0--|-3---X---X---3--2--|-----------------3--2--|-----------------------|
|-1---1---1---1-----|-------------------|-3---3---3--X-3--------|-3---3---3-X--0--3--4--|

|--------------------|--------------------|-------------------|--------------5--5--5--|
|--------------------|--------------------|-------------------|------------------------|
|--------------------|--------------------|-------------------|-3---3--X--X------------|
|-5---5---5---5--5--|-0---0---0---0--7--|-1---1---1---1--1--|------------------------|

|-------------------|-------------------|-----------------------|------------------------|
|-------------------|-------------------|-----------------------|------------------------|
|----------------0--|-3---X---X---3--2--|-----------------3--2--|------------------------|
|-1---1---1---1-----|-------------------|-3---3---3--X-3--------|-3---3---3---3--3--0--5-|


*CHORUS 1*

|---------------------|-------------------------|----------------------|----------------------|
|---------------------|-------------------------|----------------------|----------------------|
|-5---5---5--5--0--5--|-------------------------|----------------------|----------------------|
|---------------------|-5--5--5--0--5--5--0--5--|-3--3--3---3--3--0--3-|-3--3--3---3----3-----|

|---------------------|---------------------------|-------------------|--------------------|
|---------------------|-------------------------/-|-5-----------------|-5------------------|
|-5---5---5--5--0--5--|---------------------------|-------------------|--------------------|
|---------------------|-5--5--5--0--5--5--0--5----|----------3--------|---------------2--3-|


*VERSE 2*

|--------------------|--------------------|-------------------|----------------------|
|--------------------|--------------------|-------------------|----------------------|
|--------------------|--------------------|-------------------|-3--3--3---2---2--2--|
|-5---5---5---5--5--|-0---0---0---0--7--|-1---1---1---1--1--|----------------------|

|---------------------|--------------------|-------------------|------------------------|
|---------------------|--------------------|-------------------|------------------------|
|-------------------/-|-7---7---7---7--7--|-------------------|-3---3---3--0--2--3--2--|
|-5---5---5---5--5----|--------------------|-1---1---1---1--1--|------------------------|

|-------------------|-------------------|-----------------------|------------------------|
|-------------------|-------------------|-----------------------|------------------------|
|-------------------|-3---X---X---3--2--|-----------------3--2--|------------------------|
|-1---1---1---1--1--|-------------------|-3---3---3--X-3--------|-3---3---3--0--2--3--4--|

|--------------------|--------------------|-------------------|-----------------------|
|----------------/7--|--------------------|-------------------|----------------5--5--|
|--------------------|--------------------|-------------------|-3---3---X--X----------|
|-5---5---5---5------|-0---0---0---0--7--|-1---1---1---1--1--|-----------------------|

|-------------------|-------------------|-----------------------|------------------------|
|-------------------|-------------------|-----------------------|------------------------|
|----------------0--|-3---X---X---3--2--|-----------------3--2--|------------------------|
|-1---1---1---1-----|-------------------|-3---3---3--X-3--------|-3---3---3---3--3--0--5-|


*CHORUS 2*

|---------------------|-------------------------|----------------------|---------------------|
|---------------------|-------------------------|----------------------|---------------------|
|-5---5---5--5--0--5--|-------------------------|----------------------|---------------------|
|---------------------|-5--5--5--0--5--5--0--5--|-3--3--3---3--3--0--3-|-3--3--3---3---3-----|

|---------------------|-------------------------|-------------------|---------------------------|
|---------------------|-------------------------|-5--------5--------|-5-------------5-----------|
|-5---5---5--5--0--5--|-------------------------|-------------------|-------------------5-3-----|
|---------------------|-5--5--5--0--5--5--0--5--|-------------------|------------3----------5-0-|


*GUITAR SOLO/INTERLUDE*

|---------------------|---------------------------|----------------------|---------------------|
|---------------------|---------------------------|----------------------|---------------------|
|-5---5---5--5--0--5--|-------------------------7-|----------------------|---------------------|
|---------------------|-5--5--5--0--5--5--0--5----|-3--3--3---3--3--0--3-|-3--3--3---3----3----|

|---------------------|------------------------------|---------------------|----------------------|
|---------------------|----------7-----7--7----5-7-5-|-5---5---5--0--5--5--|-5-5---X-5---5---5----|
|-5---5---5--5--0--5--|------------------------------|---------------------|----------------------|
|---------------------|-5--5--5-----5--------5-------|---------------------|----------------------|

|---------------------|---------------------------|----------------------|---------------------|
|---------------------|---------------------------|----------------------|---------------------|
|-5---5---5--5--0--5--|-----------------------3-5-|----------------------|---------------------|
|---------------------|-5--5--5---5--5--0--5------|-3--3--3---3--3--0--3-|-3--3--3---3---3-----|

|---------------------|----------------------------|-------------------|-----------------------------------|
|---------------------|----------------------------|-5-----------------|-(5-5-5-5-5-5-5-5-5-5-5-5-5-5-5-5)-|
|-5---5---5--5--0--5--|----------------------5-7-5-|-------------------|-----------------------------------|
|---------------------|-5--5--5--0--5--5--0--------|-------------------|-----------------------------------|


*CHORUS 3*

|-------------------|-----------------------|----------------------|---------------------|
|-------------------|-----------------------|----------------------|---------------------|
|-------------------|-3--3--3---3--3--0--3--|----------------------|---------------------|
|-1---1---1---1--1--|-----------------------|-3--3--3---3--3--0--3-|-3--3--3---3---3-----|

|---------------------|-------------------------|-------------------|-------------------|
|---------------------|-------------------------|-5--------5--------|-5--------5--------|
|-5---5---5--5--0--5--|-------------------------|-------------------|-------------------|
|---------------------|-5--5--5--0--5--5--0--5--|-------------------|-------------------|


*OUTRO*

|-------------------|-----------------------|----------------------|---------------------| |
|-------------------|-----------------------|----------------------|---------------------| |
|-------------------|-3--3--3---3--3--0--3--|----------------------|---------------------| |
|-1---1---1---1--1--|-----------------------|-3--3--3---3--3--0--3-|-3--3--3---3---3-----| |
											   | (x 3)
|---------------------|-------------------------|-------------------|-------------------|  |
|---------------------|-------------------------|-5--------5--------|-5--------5--------|  |
|-5---5---5--5--0--5--|-------------------------|-------------------|-------------------|  |
|---------------------|-5--5--5--0--5--5--0--5--|-------------------|-------------------|  |

|------------|------------|---------------------|
|------------|------------|---------------------|
|------------|-3----------|---------------------|
|-1----------|------------|-3-------------------|

--------------------------------------------------------------

[Transcibed by Juha Solla]

Questions? Feedback? 
Feel free to contact me: [email protected]

--------------------------------------------------------------

NOTATION LEGEND

|------| 		 |------|
|------| 		 |------|
|--/5--| Slide		 |--X---| Muted note
|------|                 |------|

|------|
|------| 
|-(5)--| Silent note
|------|


Текст, аккорды и табулатура для песни "If You Tolerate This Your Children Will Be Next", исполняет "Manic Street Preachers".
Используемые в песне аккорды можно найти в разделе Как брать аккорды. Аккорды для шестиструнной гитары. Другие песни можно найти на нашем сайте, воспользовавшись алфавитным указателем вверху страницы.


 
Ошибка в тексте? Выделите ошибку и нажмите Ctrl+Enter