FOUND THAT SOUL

Intro
e------------------------
B------------------------
G------------------------
D-------11///------------     X 3
A-------11///------------
E-0-0-0-9-///------------

Verse
e-------------------------------------------------------------------
B-------------------------------------------------------------------
G----------------------10--10--10-----------------------------------
D-------11-///----X4---11--11--11--9///----X2---------11///--X2-----
A-------11-///---------11--11--11--9///---------------11///---------
E-0-0-0-9--///---------------------7///---------0-0-0-9-///---------

Chorus            / pre bend *    2nd and 3rd chorus only/
e-------------------------------------------------------------------
B--------------------------------------------9----------------------
G-------------6///------------------/(11^)13---11--9----------------
D-7///--6///--6///--X4-------------------------------11-9-----------
A-7///--6///--4///--------------------------------------------------
E-5///--4///--------------------------------------------------------

Solo
e-------------------------------------------------------------------
B-5--//----7----//---9-----//---10----//----9--------7------5-------
G-7^9//----9^11-//---11^13-//---12^14-//----11^13----9^11---7^9-----
D-------------------------------------------------------------------
A-------------------------------------------------------------------
E-------------------------------------------------------------------
            ~~~
e---------------------------14--------------14p12--16--16--14--12---
B--4--------------------/14----14--12--14-14------------------------
G--6^8---4 6--------------------------------------------------------
D-------------------------------------------------------------------
A-------------------------------------------------------------------
E-------------------------------------------------------------------

             ~~~~~~~                ~~~~~~
e-------------------------------------------------------------------
B-14--12-14-14---//-----14--12--14-14-----------5--7^9--5-----------
G-----------16^18//----------------16^18----7^9-----------7---------
D-------------------------------------------------------------------
A-------------------------------------------------------------------
E-------------------------------------------------------------------

e-------------------------------------------------------------------
B-------3--5^7--5--3--5----14---//--12--14-14---//------------------
G--5^7---------------------16^18//---------16^18//------------------
D-------------------------------------------------------------------
A-------------------------------------------------------------------
E-------------------------------------------------------------------

Key:
///  Repeated strum -just listen to the cd to work out timing
~~~  Vibrato
^    String bend
p    Pull off

This is was composed by watching James Dean Bradfield play it live 
so your not going to get more accurate than that


Текст, аккорды и табулатура для песни "Found That Soul", исполняет "Manic Street Preachers".
Используемые в песне аккорды можно найти в разделе Как брать аккорды. Аккорды для шестиструнной гитары. Другие песни можно найти на нашем сайте, воспользовавшись алфавитным указателем вверху страницы.


 
Ошибка в тексте? Выделите ошибку и нажмите Ctrl+Enter