Manic Street Preachers
Everything Must Go 



Track 5 - Everything Must Go 

    Verse; Shed some skin...                                                                    
G||----------------------|----------------------|----------------------|
D||----------------------|----------------------|----------------------|
A||--3------3-3-3--------|--3------3-3-3--------|--2------2-2-2--------|
E||----------------------|----------------------|----------------------|


                         Prechorus; Freed from the memory...                                                  
----------------------|-------------------------|-------------------------|
----------------------|-------------------------|-------------------------|
--2------2-2-2--------|--2----4--4---2----4--4--|--2----4--4---2----4--4--|
----------------------|-------------------------|-------------------------|


                                                      Chorus; And I just hope...                        
-------------------------|-------------------------|-------------------------|
-------------------------|-------------------------|-------------------------|
--4-----------4----------|--4----------------------|-------------------------|
-------5--5--------5--5--|-------5--5---5----5--5--|--0----0--0---0----0--0--|


                                                                              
-------------------------|-------------------------|-------------------------|
-------------------------|-------------------------|-------------------------|
-------------------------|-------------------------|-------------------------|
--0----0--0---0----0--0--|--5----5--5---5----5--5--|--5----5--5---5----5--5--|


                                                                              
-------------------------|-------------------------|-------------------------|
-------------------------|-------------------------|-------------------------|
--3----5--5---3----5--5--|--3----5--5---3----5--5--|-------------------------|
-------------------------|-------------------------|--0----0--0---0----0--0--|


                                                                                
-------------------------|--------------------------|--------------------------|
-------------------------|-------2--2--------2--2---|-------2--2--------2--2---|
-------------------------|--2-----------2-----------|--2-----------2-----------|
--0----0--0---0----0--0--|--------------------------|--------------------------|


                                                                                
--------------------------|--------------------------|-------------------------|
--------------------------|--------------------------|-------------------------|
-------0--0--------0--0---|-------0--0--------0--0---|--3----5--5---3----5--5--|
--0-----------0-----------|--0-----------0-----------|-------------------------|


                                                 
-------------------------|---------------------------||
-------------------------|---------------------------||
--3----5--5---3----5--5--|--7--5---------------------||
-------------------------|---------7--5---3--5--3----||

Play verse section during the bridge. The prechorus and chorus section both have the same rhythm,
 listen to the record to get it right, this isn't a hard song, Enjoy

transcribed by Rients de Boer 


Текст, аккорды и табулатура для песни "Everything Must Go", исполняет "Manic Street Preachers".
Используемые в песне аккорды можно найти в разделе Как брать аккорды. Аккорды для шестиструнной гитары. Другие песни можно найти на нашем сайте, воспользовавшись алфавитным указателем вверху страницы.


 
Ошибка в тексте? Выделите ошибку и нажмите Ctrl+Enter