Manic Street Preachers
Elvis Impersonator 



Track 1 - Everything Must Go 

   A5     All American...        D                                            
G||--------------------------|-------------------------|
D||*-------------------------|-------------------------|
A||*-------------------------|--5------5--5-7--5-5--5--|
E||---5----5--5-7--5-5--5----|-------------------------|


 C#m                       F#5                         Bm    It's so f**king...                     
-------------------------|--------------------------||-------------------|
-------------------------|-------------------------*||-------------------|
--4------4--4-6--4-4--4--|-------------------2--4--*||--2----------------|
-------------------------|--2------2--2-2-4---------||-------------------|


F#5                        Bm                 C#m7                                
-------------------------|-------------------|--------------------------|
-------------------------|-------------------|--------------------------|
-------------------2--4--|--2----------------|--4--4--4--4--4--4--4--4--|
--2------2--2-2-4--------|-------------------|--------------------------|


 C#7                           
--------------------------||
--------------------------||
--8--8--8--8--8--8--8--8--||  Solo part is the same
--------------------------||

During the first part of this great song there's no bass. This tab can work itself out.
|*--*|
|*--*| means repeat this part

transcribed by Rients de Boer 


Текст, аккорды и табулатура для песни "Elvis Impersonator", исполняет "Manic Street Preachers".
Используемые в песне аккорды можно найти в разделе Как брать аккорды. Аккорды для шестиструнной гитары. Другие песни можно найти на нашем сайте, воспользовавшись алфавитным указателем вверху страницы.


 
Ошибка в тексте? Выделите ошибку и нажмите Ctrl+Enter