Band:Manic Street Preachers
          Song: Been A Son (Nirvana Cover)
          Album: None
          Transcribed by:SLAUGHTER!!!!!!!!!!!!! ([email protected])
          
          
          Tuning:DGDGBD
          
          1, 2, 3, 4....
          
          1st RIFF
          w/slide
          -----------------------------
          -----------------------------
          ------5--32-0----5--32-0-
          -----------------------------
          -0-/5--3-------/5--3-------
          ----------------------------- x2
          
          INTRO
          
          riff x2
          She should have stayed away from friends,
          riff x2
          She should have had more time to spend,
          riff x1------------------------------
                 ------5--32-0----5--32-0--2nd RIFF
                 ------5--32-0----5--32-0--
                 ------------------------------
                 -0-/5--3-------/5--3--------
                 ------------------------------ x1
          She should have died when she was born,
          1st riff x2
          She should have worn a crown of thorns.
          
          CHORUS
          
          Chorus riff 1
          --------------------------------
          --------------------------------
          ------/10--10-/8--8-/7---7----
          --------------------------------
          --------------------------------
          -------------------------------- x2
          She shoulda been, been a son,
          
          Chorus riff 2
          --------------------------------
          ------/10--10-/8--8-/7---7----
          ------/10--10-/8--8-/7---7----
          --------------------------------
          --------------------------------
          --------------------------------
          She shoulda been, been a son,
          
          Chorus riff 3
          ------/10--10-/8--8-/7---7--------
          ------/10--10-/8--8-/7---7--------
          ------/10--10-/8--8-/7---7--------
          -------------------------------------
          -------------------------------------
          -------------------------------------
          She shoulda been, been a son.
          
          VERSE
          w/out 2nd riff, just 1st
          
          She should have stood out in the crowd,
          She should have made her mother proud,
          She should have fallen on her stance,
          She should have had another chance.
          
          REPEAT CHORUS
          w/slight variation
          
          Let ring for 2 bars
          
          VERSE
          
          1st riff 
          She should have stayed away from friends,
          1st riff 
          She should have had more time to spend,
          1st bit of 2nd riff 2nd bit of 1st riff 
          She should have died when she was born,
          1st bit of 2nd riff 2nd bit of 1st riff
          She should have worn a crown of thorns.
          
          CHORUS
          
          1st riff              Chorus riff 1
          She should have been, been a son, She should have been
          
          -----------------------------------
          ---------------------------7/87---
          ------/10--10-/8--8-/7---------7-
          -----------------------------------
          -----------------------------------
          -----------------------------------
                Been a son,         She shoulda been,
          
          Chorus riff 2
          Been a son, She shoulda been,
          Chorus riff 3
          Been a son.
          
          Please email me if this is a little complicate, or
          please 
          email me anyway!
          [email protected]
          Please visit my
          website:www.homestead.com/slaughtertabs


Текст, аккорды и табулатура для песни "Been A Son", исполняет "Manic Street Preachers".
Используемые в песне аккорды можно найти в разделе Как брать аккорды. Аккорды для шестиструнной гитары. Другие песни можно найти на нашем сайте, воспользовавшись алфавитным указателем вверху страницы.


 
Ошибка в тексте? Выделите ошибку и нажмите Ctrl+Enter