-------------------------------------------------------------------------------
			     The Pink Panther Theme Tune	
-------------------------------------------------------------------------------
Tabbed by: Kowalski	

Tuning: Standard

Heres a well known favourite to learn!!

Bass Intro : 

e|----------------------+-------|
B|----------------------+-------|
G|----------------------+-------| x2
D|------------------------------|
A|----5-6-7---------------------|
E|--7---------7----0------------|

Main Tune :

e|-----------------------------------------------------------|
B|-----------------------------------------------------------|
G|-----------------------------------------------------------| 
D|----------4-5-----4-5-8-9---5-8-7~------8p75--------------|
A|----5-6-7-----6-7---------7----------7-------6-7-----------|
E|--7--------------------------------------------------------|


e|-----------------------------------------------------------|
B|-----------------------------------------------------------|
G|----9p7----------------------------------------------------|
D|--------8p75---5h7-5h7-5h7-5h7—-7p5-----------------------|
A|--7-----------7----------------------7--6-7----------------|
E|-----------------------------------------------------------|


| /  slide up
|   slide down
| h  hammer-on
| p  pull-off
| ~  vibrato
| +  harmonic
| x  Mute note


Текст, аккорды и табулатура для песни "Pink Panther Theme", исполняет "Mancini Henry".
Используемые в песне аккорды можно найти в разделе Как брать аккорды. Аккорды для шестиструнной гитары. Другие песни можно найти на нашем сайте, воспользовавшись алфавитным указателем вверху страницы.


 
Ошибка в тексте? Выделите ошибку и нажмите Ctrl+Enter