Для первого и третьего куплетов играется нечто подобное:
    
     Am          Am+7/G#        Am7/G       Am6/F#
e||--8--------8-----------8--|-----------8-----------5--|
H||--------5-----------5-----|--------5-----------5-----|
G||-----5-----------5--------|-----5-----------5--------|
D||--7-----------6-----------|--5-----------4-----------|
A||--------------------------|--------------------------|
E||--------------------------|--------------------------|
                                                      
   F           F+7/E          F6/D        F6/C
|-----------5-----------5--|-----------5-----------5--|
|--------6-----------6-----|--------6-----5-----6-----|
|-----5-----------5--------|-----5-----------7--------|
|--3-----------2-----------|--0-----------------------|
|--------------------------|--------------3-----------|
|--------------------------|--------------------------|
                                                      
   Dm (Dsus2)                 E7
|--------------5-----------|--------------7-----------|
|--5-----5--6--------5--6--|--------9-----------9-----|
|-----7-----------7--------|-----7-----9-----7-----9--|
|--0-----------------------|--------------------------|
|--------------------------|--7-----------------------|
|--------------------------|--------------------------|
                                                      
   Dm7 (D7sus2)               E7
|--------------8-----------|--------------7-----------|
|--------6--------6--5-----|--------9-----------9-----|
|-----7-----7-----------7--|-----7-----9-----7-----9--|
|--------------------------|--------------------------|
|--5-----------------------|--7-----------------------|
|--------------------------|--------------------------|
                                                      
   Am          Am+7/G#        Am7/G       Am6/F#
|--8--------8-----------8--|-----------8-----------5--|
|--------5-----------5-----|--------5-----------5-----|
|-----5-----------5--------|-----5-----------5--------|
|--7-----------6-----------|--5-----------4-----------|
|--------------------------|--------------------------|
|--------------------------|--------------------------|
                                                      
   F           F+7/E          D#dim
|-----------5-----------5--|--------------5-----------|
|--------6-----------6-----|-----------------7--------|
|-----5-----------5--------|--------5-----------5-----|
|--------------------------|-----7-----7-----------7--|
|--8-----------7-----------|--6-----------------------|
|--------------------------|--------------------------|
                                                      
   Dm (Dsus2)                 E7
|--------------5-----------|--------------7-----------|
|--------5--6--------5--6--|--------9-----------9-----|
|-----7-----------7--------|-----7-----9-----7-----9--|
|--0-----------------------|--------------------------|
|--------------------------|--7-----------------------|
|--------------------------|--------------------------|
                                                                          
   F                                G7
|-----------------8--------------|------------------10--------------|
|---------10-------------10------|----------12--------------12------|
|-----10------10-----10------10--|------10------10------12------12--|
|--------------------------------|----------------------------------|
|--8-----------------------------|--10------------------------------|
|--------------------------------|----------------------------------|

Вечная любовь - верны мы были ей, 
Но время - зло для памяти моей. 
Чем больше дней, глубже рана в ней. 
Все слова любви в измученных сердцах. 
Слились в одно преданье без конца 
Как поцелуй. И все тянется давно. 

Cm         Fm7                 B
Я уйти не мог, прощаясь навсегда, 
         Eb                    Ab
И видит Бог, надеюсь, жду, когда
       Fm       Gsus4  G              A7
Увижу вновь эту мою любовь, и дам я клятву вновь. 
 Dm       Gm7                 C
Вечная любовь вся выпита до дна,
         F                     B
И путь один, сквозь ад ведет она, 
        Gm      A     Am-5    E7
Минуя мрак и туман. Туман, обман... 
                 
Вечная любовь - верны мы были ей, 
Но время - зло для памяти моей. 
Чем больше дней, глубже рана в ней. 
Все слова любви - безумный крик сердец, 
Слова тревог и слезы, наконец, 
Приют для всех уже прожитых утех. 

Сколько раз цветет и в сумраке ночном, 
Умрет, уйдет, но оживет потом и все вернет. 
Блаженный летний зной, извечный летний зной. 
Вечная любовь, живу, чтобы любить до слепоты 
И до последних дней - одна лишь ты. 
Жить, любя одну тебя. Навсегда.

   Am-5           Gsus4

x|---|---|---|  |-o-|---|---|
 |-o-|---|---|  |-o-|---|---|
 |---|-o-|---|  |-o-|---|-o-|
 |-o-|---|---|  |-o-|---|-o-|
o|---|---|---|  |-o-|---|-o-|
x|---|---|---|  |-o-|---|---|
                 III


Текст, аккорды и табулатура для песни "Вечная любовь", исполняет "Макарский Антон".
Используемые в песне аккорды можно найти в разделе Как брать аккорды. Аккорды для шестиструнной гитары. Другие песни можно найти на нашем сайте, воспользовавшись алфавитным указателем вверху страницы.


 
Ошибка в тексте? Выделите ошибку и нажмите Ctrl+Enter