Intro and main riff:

E|---------------------------------------------------|------------------------|
B|---------------------------------------------------|------------------------|
G|---------------------------------------------------|------------------------|
D|---------------------------------------------------|------------------------|
A|--7----------3------------7----------7----3--------|------------3--5--------|
E|--5----------5------------5----------5----5--------|------3--5--------3--5--|


(fill at the end of the main riff )
|-----------------------|------------------|--------------8----8---12~~~--|
|-----------------------|------------------|--10-----10-------------------|
|----------5----5--9~~~-|------------------|------------------------------|
|--7----7---------------|------------------|------------------------------|
|-----------------------|------------------|------------------------------|
|-----------------------|------------------|------------------------------|


    Am
Ты можешь ходить, как запущенный сад
   Em
А можешь все наголо сбрить
   Dm
И то, и другое я видел не раз
   F       G      Am
Кого ты хотел удивить?

Ты верил в гитару, "Битлов" и цветы
Мечтая весь мир возлюбить
Но все эти песни придумал не ты
Кого ты хотел удивить?


Припев:

    C               Am
Скажи мне, чему ты рад?
    C               Am
Постой, оглянись назад
    Dm       G      Dm         C
Постой, оглянись назад, и ты увидишь
     F
Как вянет листопад
   Dm
И вороны кружат
          F             E/G   Am
Там, где раньше был цветущий сад.  (starting main riff without fill)


Ты стал бунтарем, и дрогнула тьма,
Весь мир ты хотел изменить --
Но всех бунтарей ожидает тюрьма --
Кого ты хотел удивить?

Теперь ты устал, и тебе все равно,
Как жизни остаток дожить --
И тут на тебя все похожи давно,
Кого ты хотел удивить?

Припев:


Keyboard solo arranged for guitar.


E|-----12~~~~--|--------------------------|------------------------|------------------------|
H|--13---------|-----13-16----------15----|------13----------13----|------------13----15----|
G|-------------|--------------14----------|------------14----------|------14----------------|
D|-------------|--------------------------|------------------------|------------------------|
A|-------------|--------------------------|------------------------|------------------------|
E|-------------|--------------------------|------------------------|------------------------|



--17--15----17--15----17--15--|----17--15----15--17----17--|
--17--15----17--15----17--15--|----17--15----15--17----17--|
------------------------------|----------------------------|
------------------------------|----------------------------|
------------------------------|----------------------------|
------------------------------|----------------------------|



--15----15--17----17--15----|--17--15----17--15---------17-|
--15----15--17----17--15----|--17--15----17--15------18----|
----------------------------|------------------------------|
----------------------------|------------------------------|
----------------------------|------------------------------|
----------------------------|------------------------------|



--20~~~-------------|----19p18p17---/20---h22----|------------------|
--------------------|----------------------------|------------------|
--------------------|----------------------------|------------------|
--------------------|----------------------------|------------------|
--------------------|----------------------------|------------------|
--------------------|----------------------------|------------------|



----19p18p17---/20---h22----|--23p20-----23p20-----23p20-----23p20-----|
----------------------------|--------h22-------h22-------h22-------h22-|
----------------------------|------------------------------------------|
----------------------------|------------------------------------------|
----------------------------|------------------------------------------|
----------------------------|------------------------------------------|


                                             (some arpegio...)
--22p19-----22p19-----22p19-----22p19-----|--24p20-----20----------------------------|
--------h20-------h20-------h20-------h20-|--------h22----22-----22------------------|
------------------------------------------|-------------------21----21-----21--------|
------------------------------------------|-----------------------------22----22--19-|
------------------------------------------|------------------------------------------|
------------------------------------------|------------------------------------------|


  (play triplets...)
------------------------------------------|------------11-12-/17--------15-|
------------------------------------------|----------------------16-17-----|
--17--------------------------------------|--------------------------------|
-----19-----19----------------------------|--14----------------------------|
---------19----19-----19--------15--------|--------------------------------|
-------------------20----20--17----17--12-|--------------------------------|



  (play tapping style...)
---------17--------15--------17--------15-|---------17--------15--------17--------15-|
--16-17-----16-17-----16-17-----16-17-----|--16-17-----16-17-----16-17-----16-17-----|
------------------------------------------|------------------------------------------|
------------------------------------------|------------------------------------------|
------------------------------------------|------------------------------------------|
------------------------------------------|------------------------------------------|



---------17--------15--------17--------15-|------------------------------------------|
--16-17-----16-17-----16-17-----16-17-----|---------15--------17--------15--------17-|
------------------------------------------|--15-16-----15-16-----15-16-----15-16-----|
------------------------------------------|------------------------------------------|
------------------------------------------|------------------------------------------|
------------------------------------------|------------------------------------------|



------------------------------------------|------------------------------------------|
---------15--------17--------15--------17-|---------15--------17--------15--------17-|
--15-16-----15-16-----15-16-----15-16-----|--15-16-----15-16-----15-16-----15-16-----|
------------------------------------------|------------------------------------------|
------------------------------------------|------------------------------------------|
------------------------------------------|------------------------------------------|



------------------------------------------|---------17--------15--------17--------15-|
---------15--------17--------15--------17-|--16-17-----16-17-----16-17-----16-17-----|
--15-16-----15-16-----15-16-----15-16-----|------------------------------------------|
------------------------------------------|------------------------------------------|
------------------------------------------|------------------------------------------|
------------------------------------------|------------------------------------------|



---------17--------15--------17--------15-|---------17--------15--------17--------15-|
--16-17-----16-17-----16-17-----16-17-----|--16-17-----16-17-----16-17-----16-17-----|
------------------------------------------|------------------------------------------|
------------------------------------------|------------------------------------------|
------------------------------------------|------------------------------------------|
------------------------------------------|------------------------------------------|



---------17--------15--------17--------15-|---------15--------13--------15--------13-|
--16-17-----16-17-----16-17-----16-17-----|--14-15-----14-15-----14-15-----14-15-----|
------------------------------------------|------------------------------------------|
------------------------------------------|------------------------------------------|
------------------------------------------|------------------------------------------|
------------------------------------------|------------------------------------------|


                                                (fast tremolo with little improvise... 
---------15--------13--------15--------13-|-----24-23-22-21-20/2423222120191817-|
--14-15-----14-15-----14-15-----14-15-----|-------------------/2423222120191817-|
------------------------------------------|--------------------------------------------|
------------------------------------------|--------------------------------------------|
------------------------------------------|--------------------------------------------|
------------------------------------------|--------------------------------------------|


...using some wah-wah with lots of dist and fade out...)
-16151413121110987654321--/5--|
-16151413121110987654321--/5--|
----------------------------------------------|
----------------------------------------------|
----------------------------------------------|
----------------------------------------------|

Ты думал собой осчастливить весь свет,
Сияньем его озарить.
Но ветер подул и тебя больше нет
Кого ты хотел удивить?

Теперь ты усчтал и тебе все равно
Как жизни остаток прожить.
И тут на тебя все похожи давно
Кого ты хотел удивить?

Припев:

Guitar solo:

Кого ты хотел удивить 



E|--12--12--12--12--12--12--12--12--|--12--12--12--12--12--12--12--12--|
B|----------------------------------|----------------------------------|
G|----------------------------------|----------------------------------|
D|----------------------------------|----------------------------------|
A|----------------------------------|----------------------------------|
E|----------------------------------|----------------------------------|


                                                                          
----------------------------|----------------------|---------------------|
--13-p11------10--------10b-|--------10b-------10r-|------------9-/6-p5--|
---------h12----------------|----------------------|---------------------|
----------------------------|----------------------|---------------------|
----------------------------|----------------------|---------------------|
----------------------------|----------------------|---------------------|


                                                                       
----------------------|-----------------------|-----------------------|
-----5----------6--8--|------5--4-------------|--------------------8--|
--7-------------------|--------------7--5--4--|-----------------------|
----------------------|-----------------------|--8--7--5--7-----------|
----------------------|-----------------------|-----------------------|
----------------------|-----------------------|-----------------------|


                                                                        
--5---------------------|----------------------|-----------------------|
-------8--5-------------|----------------------|-----------------------|
-------------7--5--7----|----5--7------5--7----|----5------------------|
------------------------|----------------------|-------7--6-----7------|
------------------------|----------------------|-------------7---------|
------------------------|----------------------|-----------------------|


                                                                                          
-------------------------|------------------------|--5----------------|------------------|
-------------5-----8--5--|------------------------|-------------------|------------------|
----5--8--5-----7--------|--7--5-----5------------|-------------------|------------------|
-------------------------|--------5---------7--5--|-------------------|------------------|
-------------------------|------------------------|-------------------|------------------|
-------------------------|------------------------|-------------------|------------------|


                                                                     
---------------------|------------------------|---------------------|
---------------------|--5---------------------|---------------------|
-----------5----7----|-------5----7--5-----5--|-----------5----7----|
------7--------------|------------------7-----|------7--------------|
---------------------|------------------------|---------------------|
---------------------|------------------------|---------------------|


                                                                       
------------------------|---------------------|-----------------------|
--5----8----------------|---------------------|--5----8----5----------|
------------7--5-----5--|-----------5----7----|---------------7--5----|
------------------7-----|------7--------------|-----------------------|
------------------------|---------------------|-----------------------|
------------------------|---------------------|-----------------------|


                                                                        
-----------------------|-----------------------|-----------------------|
--5----8----5----------|--5----8----5----------|-----------------------|
---------------7--5----|---------------7--5----|--7--5-----5-----------|
-----------------------|-----------------------|--------7---------7----|
-----------------------|-----------------------|-----------------------|
-----------------------|-----------------------|-----------------------|


                                                                           
-----------8----10----|--12----------10--8------8--|-----------8----10----|
-----10---------------|--------13-----------10-----|-----10---------------|
----------------------|----------------------------|----------------------|
----------------------|----------------------------|----------------------|
----------------------|----------------------------|----------------------|
----------------------|----------------------------|----------------------|


                                                                                   
--12----15--------------------|------------------------|--12----15----12----15----|
--------------15--13------13--|------------13----15----|--------------------------|
----------------------14------|------14----------------|--------------------------|
------------------------------|------------------------|--------------------------|
------------------------------|------------------------|--------------------------|
------------------------------|------------------------|--------------------------|


                                                                                          
--12----15----12----15----|--12--15--12--15--12--15--12--15--|---------------------------|
--------------------------|----------------------------------|---------------------------|
--------------------------|----------------------------------|---------------------------|
--------------------------|----------------------------------|---------------------------|
--------------------------|----------------------------------|------------3-----3---7----|
--------------------------|----------------------------------|--5-----5------------------|


                                                                                      
------------------|-------------------------|------------------|--------|
------------------|-------------------------|------------------|--------|
------------------|----------5----5---9-----|------------------|--------|
------------------|--7----7-----------------|------------------|--7--7--|
------------------|-------------------------|------------------|--7--7--|
------------------|-------------------------|------------------|--5--5--|

(main part of solo based on the A-min penthatonic)


Текст, аккорды и табулатура для песни "Кого ты хотел удивить?", исполняет "Макаревич Андрей".
Используемые в песне аккорды можно найти в разделе Как брать аккорды. Аккорды для шестиструнной гитары. Другие песни можно найти на нашем сайте, воспользовавшись алфавитным указателем вверху страницы.


 
Ошибка в тексте? Выделите ошибку и нажмите Ctrl+Enter