[ _ [ guitarra ] _ ]

 introduccion  (2da gtr::A  G  F  F-G-A-B-C-B A  G  F  F-G-A-B-C-E)
                                   x3
------------------------------------|-------------------
------------------------------------|-------------------
------------7-----9-----10---9-7----|-------------------
-7-7-10-7-9-----7-----7----------10-|--------7--9--10-9-
------------------------------------|-8--10-------------
------------------------------------|-------------------

                                   x3
------------------------------------|-------------------
------------------------------------|-------------------
------------7-----9-----10---9-7----|-------------------
-7-7-10-7-9-----7-----7----------10-|--------7--9--10---
------------------------------------|-8--10-----------7-
------------------------------------|-------------------

 riff a
-------------------------------------------------------
-------------------------------------------------------
-------------------------------------------------------
---------0-2-3---------2-3-5---------2-3-5-------------
-3-x-x-x-------1-x-x-x-------5-x-x-x-------5-x-x-x-x-x-
-1-x-x-x-------3-x-x-x-------3-x-x-x-------3-x-x-x-x-x-
              x2
---------------|---------------
---------------|---------------
---------------|---------------
-5-5-5-5--4----|-7-7-7-7--5-4--
-3-3-3-3--2-5--|-5-5-5-5--3-2--
------------3--|---------------

 verso (la 2da vez con palm muting)
--------------------------------------------------------
--------------------------------------------------------
--------------------------------------------------------
---------------------------------------------|-7--7-5---| 


Текст, аккорды и табулатура для песни "La Conquista", исполняет "Mago De Oz".
Используемые в песне аккорды можно найти в разделе Как брать аккорды. Аккорды для шестиструнной гитары. Другие песни можно найти на нашем сайте, воспользовавшись алфавитным указателем вверху страницы.


 
Ошибка в тексте? Выделите ошибку и нажмите Ctrl+Enter