Standard tuning.

0:03

E---------------------------------------
H--------3---------3-------0---------0--
G------4---------2----------------------
D----4---------0---------0---------2----
A--2---------0-------------------2------
E----------------------3-------0--------

2:58

E---------------------------------------
H------5-------------------5---------2--
G--------6-------9----------------------
D----6---------9---9---------------4----
A--4---------7-----------7-------4------
E----------------------5-------2--------

E-------------------------------------------
H--------5-------------------5--------------
G----------6-------9------------------------
D------6---------9---9----------------------
A--0-4---------7-----------7-------2-2h4p2--
E------------------------5-------2----------


Текст, аккорды и табулатура для песни "Hollywood", исполняет "Madonna".
Используемые в песне аккорды можно найти в разделе Как брать аккорды. Аккорды для шестиструнной гитары. Другие песни можно найти на нашем сайте, воспользовавшись алфавитным указателем вверху страницы.


 
Ошибка в тексте? Выделите ошибку и нажмите Ctrl+Enter