Artist: Machine Head
Album: The Burning Red
Song: Devil with the kings card

TUNE TO:BEADGb
------------------------------------------------------------------------------|
------------------------------------------------------------------------------|
------------------------------------------------------------------------------|
-8-8-8-8-8-8-8-8-8-8-8-8------------------------------------------------------|
-8-8-8-8-8-8-8-8-8-8-8-8-x-------------|
-6-6-6-6-6-6-6-6-6-6-6-6-x------------|
 Intro
------------------------------------------------------------------------------|
------------------------------------------------------------------------------|
------------------------------------------------------------------------------|
------------------------------------------------------------------------------|
------------------------------------------------------------------------------|
-2---2-br-2h3p2--2-br---------------------------------------------------------|
 Chorus 1
--------------|---------------------------------------------------------------|
--------------|---------------------------------------------------------------|
--------------|---------------------------------------------------------------|
-9-----10b----|9-3-3-3-3-3-3-3------------------------------------------------|
-9------------|9-3-3-3-3-3-3-3------------------------------------------------|
-7------------|7-1-1-1-1-1-1-1------------------------------------------------|
 Fill 1
------------------------------------------------------------------------------|
------------------------------------------------------------------------------|
------------------------------------------------------------------------------|
-9-9-9-----9-9-9-----9-9-9----10b---------------------------------------------|
-9-9-9-----9-9-9-----9-9-9----------------------------------------------------|
-7-7-7-----7-7-7-----7-7-7----------------------------------------------------|
 Verse
---------3-3-3-3---3---3---3---3----------------------------------------------|
-6-6-6-6---------6---6---6---6------------------------------------------------|
------------------------------------------------------------------------------|
------------------------------------------------------------------------------|
------------------------------------------------------------------------------|
------------------------------------------------------------------------------|
 Fill 2
------------------------------------------------------------------------------|
------------------------------------------------------------------------------|
------------------------------------------------------------------------------|
-2/4-4-4-4/5-5-5-5/7-7-7-7/8-8-8----------------------------------------------|
-2/4-4-4-4/5-5-5-5/7-7-7-7/8-8-8----------------------------------------------|
-0h2-2-2-2/3-3-3-3/5-5-5-5/6-6-6----------------------------------------------|
 Chorus 2
------------------------------------------------------------------------------|
--17-16--14-12--14-12--10-9--10-9--7-5--9-7--5-4------------------------------|
------------------------------------------------------------------------------|
------------------------------------------------------------------------------|
-9----------------------------------------------------------------------------|
------------------------------------------------------------------------------|
 Change
------------------------------------------------------------------------------|
------------------------------------------------------------------------------|
------------------------------------------------------------------------------|
-4-3-2----5-4-3---------------------------------------------------------------|
-4-3-2----5-4-3---------------------------------------------------------------|
-2-1-0----3-2-1---------------------------------------------------------------|


Текст, аккорды и табулатура для песни "Devil With The Kings Card", исполняет "Machine Head".
Используемые в песне аккорды можно найти в разделе Как брать аккорды. Аккорды для шестиструнной гитары. Другие песни можно найти на нашем сайте, воспользовавшись алфавитным указателем вверху страницы.


 
Ошибка в тексте? Выделите ошибку и нажмите Ctrl+Enter