Title: What You Do About Me
Artist: M2M
Album: The Big Room
Tabbed By: E.J. Gemzon => [email protected]
    
    I hope my eardrums did not betray me when I was doing
this, especially the intro part. I hope the chords I put 
is right.

Chords:
C   x32033
D   xx0232
Am7 xo2013

  RIFF 1
e-------2------------2----4--2---|
b-----0-----------0------------0-|
g-2/4------4-2/4--------4--------|
d--------------------------------|
a--------------------------------|
E--------------------------------|

  RIFF 2 
e-------2----------0----0---|
b-----0----------0--------0-|
g-2/4-----4--42------2-----|
d---------------------------|
a---------------------------|
E --------------------------|

  RIFF 3
      break
e--3-3------3--|
b--3-3------3--|
g--0-0------0--|
d--2-2------2--|
a--------------|
E--------------|

Intro:   (Riff 1, Riff 2) 2x

Verses:  sorry =D

  Am7          D      C
  you say you love me so
  Am7          D      C 
  you have to let her know

Chorus:

Am7           D        C Riff 3 
All that she wants is you
Am7           D       C Riff 3
All that she sees is you
Am7           D     C
All that you gotta do
D              C
Is set to her free
Am7     Am7   C      D  Break
That's what, that's what

What you do about me
Am7         C     D
We could be beatiful
          Am7 C    D          
We could be so special
             Am7   C
We could be wonderful


end the cong on C

=====> I could not figure out the guitar on verses.
       Marit may be too good for me.  But I won't 
       give up and I'll post it hopefully soon.


Текст, аккорды и табулатура для песни "What You Do About Me", исполняет "M2m".
Используемые в песне аккорды можно найти в разделе Как брать аккорды. Аккорды для шестиструнной гитары. Другие песни можно найти на нашем сайте, воспользовавшись алфавитным указателем вверху страницы.


 
Ошибка в тексте? Выделите ошибку и нажмите Ctrl+Enter