Workin' For MCA - Lynyrd Skynyrd

  intro
G|----------------------------|
D|----------------------------|
A|----------------------------|
E|2/7---2/7---2/7---2/7---|

  verse riff
G|------------------------------|
D|------------------------------|
A|2-542-0-0-2---02-542-0-25---0|
E|-----2-----2-2-------2----2-2-|

  chorus
G|---------------------2------------------------------|
D|-4-2------------4-2----24---4-2------------4-2------|
A|--4---0----------4--4--------4---0----------4---0---|
E|2----2--2-2222-2-----------2----2--2-2222-2----2----|

tabbed by Achilles ([email protected])


Текст, аккорды и табулатура для песни "Workin For Mca", исполняет "Lynyrd Skynyrd".
Используемые в песне аккорды можно найти в разделе Как брать аккорды. Аккорды для шестиструнной гитары. Другие песни можно найти на нашем сайте, воспользовавшись алфавитным указателем вверху страницы.


Слушать онлайн Working for MCA


A-Type PlayerWorking for MCA на Яндекс.Музыке


 
Ошибка в тексте? Выделите ошибку и нажмите Ctrl+Enter