--------------------------------------------------------------------------------
			    Working for MCA - Lynyrd Skynyrd
--------------------------------------------------------------------------------
Tabbed by: Josh Abernathy (Skynyrd 1515)

Tuning: EADGBe

                     Intro
e|--------------------------------------------------------------------------|
B|--------------------------------------------------------------------------|
G|---/16---/16---16-/16---/16-----------------------------------------------|
D|---/16---/16---16-/16---/16-----------------------------------------------|
A|--------------------------------------------------------------------------|
E|--------------------------------------------------------------------------|


e|-------------------------------------------------------------------
B|---12--12--14b----------------------------------------------------
G|------------------14--11h14--11---9--7-----7--9--7--9brb-----------
D|---------------------------------------------9---------------------
A|-------------------------------------------------------------------
E|-------------------------------------------------------------------

e|--------------------------------|
B|------------------------7-------|
G|---9--7-----7--9--7----7--------|
D|----------9-----------------9---|
A|--------------------------------|
E|--------------------------------|

		Verse
e|---------------------------------------------------------------------------
B|---------------------------------------------------------------------------
G|---------------------------------------------------------------------------
D|---4--------------2-2--4---------------------------------------------------
A|---2---5--4--2--0-0--2--2--------------------------------------------------
E|----------------------------0----------------------------------------------

e|---------------------------------------------------------------------------|
B|---------------------------------------------------------------------------|
G|---------------------------------------------------------------------------|
D|---4--------------2--4--6--------------------------------------------------|
A|---2---5--4--2--0--2--4--2-------------------------------------------------|
E|-----------------------------0---------------------------------------------|

		Chorus
e|----------------------------------------------------------
B|----------------------------------------------------------
G|----------------------------------------------------------
D|------------4-----2---------------------------------------
A|--------0------0-----4------------------------------------
E|-----2-------------------5---2----------------------------


e|----------------------------------------------------------
B|----------------------------------------------------------
G|----------------------------------------------------------
D|------------4-----2-------4---2h4-------------------------
A|---------0-----0------4-----------------------------------
E|------2---------------------------------------------------

e|----------------------------------------------------------
B|----------------------------------------------------------
G|----------------------------------------------------------
D|------------4-----2---------------------------------------
A|--------0------0-----4------------------------------------
E|-----2-------------------5---2----------------------------

e|----------------------------------------------------------|
B|----------------------------------------------------------|
G|----------------------------------------------------------|
D|------------4-----2------------9--------------------------|
A|--------0------0-----4---------7--------------------------|
E|-----2----------------------------------------------------|



Solo 1 : 

e|----------------------------------------------------------
B|----------------------------------------------------------
G|---------/-----7----7p6--6h7h9---4-------4----------------
D|------------------------------------------------4---------
A|----------------------------------------------------------
E|----------------------------------------------------------

e|----------------------------------------------------------
B|-------------3--------------------------------------------
G|----------2-----4----------4--2---4brb---4brp2--4--4------
D|-------4--------------------------------------------------
A|----------------------------------------------------------
E|----------------------------------------------------------

e|----------------------------------------------------------
B|----------------------------------------------------------
G|----------------------------------------------------------
D|-------7--4-----------------------------------------------
A|-------------7br5---7brb----------------------------------
E|----------------------------------------------------------

Solo 2 :


e|----------------------------------------------------------
B|------15--------------------------------------------------
G|----------------7----------------------------6------------
D|-------------------9-----------------7-----7-7--7---------
A|----------------------9-------7--9--------9---9-----------
E|----------------------------------------------------------

e|----------------------------------------------------------
B|----------------------------------------------------------
G|------------------------------------------7---------------
D|-----9/10-7--9-------------------7--------9---------------
A|------------------------------7--9-----9------------------
E|--------------------------------------------------10--7---

e|----------------------------------------------------------
B|----------------------------------------------------------
G|----------------------7------------7----------------------
D|----------------7--------7/9--------7/9--9--9-------------
A|----5---5--7/9-----9------------9-------------------------
E|------7---------------------------------------------------

e|------------------------7---------------------------------
B|----------10p7-----10b-----10b----10-7--------------------
G|------7--------7------------------------10p9-7--9-7--9b---
D|----------------------------------------------------------
A|----------------------------------------------------------
E|----------------------------------------------------------

e|----------------------------------------------------------
B|----------------------------------------------------------
G|-----9bb--7-------------9p7----7b--7b-7b------------------
D|-------------9--9----9------9-------------9p7-------------
A|----------------------------------------------9-----------
E|------------------------------------------------10--7-----

e|----------------------------------------------------------
B|----------------------------------------------------------
G|------------------------7------7-------7------------------
D|-------------------7-------7-----7-------7------7----7h9~-
A|-----5-----5--7/9----9-----------------------9-----9------
E|--------7-------------------------------------------------



e|----------------------------------------------------------
B|---------10--12---/12-----10-----/12----------------------
G|----/11-----------------------11--------------------------
D|----------------------------------------------------------
A|----------------------------------------------------------
E|----------------------------------------------------------

e|-----------------10b--------------------------------------
B|---------10------------12p10------10h12------12--10-------
G|-----11------11---------------11--------------------------
D|----------------------------------------------------------
A|----------------------------------------------------------
E|----------------------------------------------------------

e|-----10-------------10-------------10---------------------
B|---------12p10----------12p10----------12p10--------------
G|----------------11-------------11-------------11----------
D|----------------------------------------------------------
A|----------------------------------------------------------
E|----------------------------------------------------------

e|-----10-------------10-------------10---------------------
B|---------12p10----------12p10----------12p10--------------
G|----------------11-------------11-------------11----------
D|----------------------------------------------------------
A|----------------------------------------------------------
E|----------------------------------------------------------

e|-----10-------------10-------------10---------------------
B|---------12p10----------12p10----------12p10--------------
G|----------------11-------------11-------------11----------
D|----------------------------------------------------------
A|----------------------------------------------------------
E|----------------------------------------------------------

e|----10------------------10--------------------------------
B|--------12p10----------------12--10---12------------------
G|---------------11-----------------------------------------
D|----------------------------------------------------------
A|----------------------------------------------------------
E|----------------------------------------------------------

e|------------17-------------17-----------------------------
B|-------17b------------17b------17brp15------15--17--15----
G|----------------------------------------16----------------
D|----------------------------------------------------------
A|----------------------------------------------------------
E|----------------------------------------------------------

e|------------17--------------------------------------------
B|-------17b-----------17brp15------------------------------
G|-------------------------------16---16--------------------
D|----------------------------------------------------------
A|----------------------------------------------------------
E|----------------------------------------------------------

e|------------17-------------17-----------------------------
B|-------17b------------17b------17brp15------15--17--15----
G|----------------------------------------16----------------
D|----------------------------------------------------------
A|----------------------------------------------------------
E|----------------------------------------------------------


e|------------17-------17-------17------------14--17--17b---
B|-------17b------17b------17b------17b---17----------------
G|----------------------------------------------------------
D|----------------------------------------------------------
A|----------------------------------------------------------
E|----------------------------------------------------------

e|-------17b--17b----17b--17--14-------14----------14-------
B|--------------------------------17b------15--17-----------
G|----------------------------------------------------------
D|----------------------------------------------------------
A|----------------------------------------------------------
E|----------------------------------------------------------

e|-------17b-17b-----17--14-----------------------------14--
B|----------------------------14b--14b---------------17-----
G|--------------------------------------16--14--------------
D|----------------------------------------------16----------
A|----------------------------------------------------------
E|----------------------------------------------------------

e|-------17b-------17b--17--14-17b--17--14--17b---17--14----
B|----------------------------------------------------------
G|----------------------------------------------------------
D|----------------------------------------------------------
A|----------------------------------------------------------
E|----------------------------------------------------------

e|------------14-------14-----------------------------------
B|------17b------17b------14b---14b-------------------------
G|-------------------------------------16--14---------------
D|--------------------------------------------16-14----14---
A|--------------------------------------------------16------
E|----------------------------------------------------------


e|----------------------------------------------------------
B|----------------------------------------------------------
G|--------9------9b-9b-9b-9b-9b-9b-9b-9b-9b-9b-9br-6--------
D|--------9-------------------------------------------9-----
A|----------------------------------------------------------
E|----------------------------------------------------------

e|----------------------------------------------------------
B|----------------------------------------------------------
G|----------------------------------------------------------
D|------7b-7b-7b--4-----------------------------------------
A|----------------------------------------------------------
E|----------------------------------------------------------

e|----------------------------------------------------------
B|----------------------------------------------------------
G|-----4p2----2---------------------------------------------
D|----------4---4-2-----------------------------------------
A|------------------4-2-------------------------------------
E|----------------------5-2---------------------------------


e|-------------------------------------------------------------------
B|---12--12--14b----------------------------------------------------
G|------------------14--11h14--11---9--7-----7--9--7--9brb-----------
D|---------------------------------------------9---------------------
A|-------------------------------------------------------------------
E|-------------------------------------------------------------------

e|--------------------------------|
B|------------------------7-------|
G|---9--7-----7--9--7----7--------|
D|----------9-----------------9---|
A|--------------------------------|
E|--------------------------------|

(Outro) :

e|----------------------------------------------------------
B|----7---10bb---7----7/10/7-------------------------10-----
G|------------------------------------9brp7-9---7--9b---9b--
D|--------------------------------------------9-------------
A|----------------------------------------------------------
E|----------------------------------------------------------

e|----------------------------------------------------------
B|------7--10b--10-7--------7-------------------------------
G|--------------------10-9----9p8---------------------------
D|--------------------------------9-------------------------
A|----------------------------------9-----------------------
E|----------------------------------------------------------

e|----------------------------------------------------------
B|---------7-7-----7--10-----7--7------7--10---10b----------
G|-----9b------9b--------9b--------9b-----------------------
D|----------------------------------------------------------
A|----------------------------------------------------------
E|----------------------------------------------------------

e|----------7-7-------7--10--7-------7----------------------
B|-----10b-------10b------------10b-------------------------
G|--------------------------------------9br--7--------------
D|----------------------------------------------9-----------
A|----------------------------------------------------------
E|----------------------------------------------------------


e|----------------------------------------------------------
B|---------10--10------10---12bb---12bb----10-12-10~--------
G|----/11----------11---------------------------------------
D|----------------------------------------------------------
A|----------------------------------------------------------
E|----------------------------------------------------------


e|----------------------------------------------------------
B|-----10-7-------------------------------------------------
G|-----------10-9-7---9---7-9-7b----------------------------
D|------------------9---9---------9-------------------------
A|----------------------------------------------------------
E|----------------------------------------------------------

e|----------7-7-----7-10-7------7------7-------------------
B|-----10b------10b---------10b----10b----10b---------------
G|----------------------------------------------------------
D|----------------------------------------------------------
A|----------------------------------------------------------
E|----------------------------------------------------------

e|-----------7-7------7-10-7-----7--10b-10--7~--------------
B|------10b------10b---------10b----------------------------
G|----------------------------------------------------------
D|----------------------------------------------------------
A|----------------------------------------------------------
E|----------------------------------------------------------


e|-------17----17----------------------------17-------------
B|-------17b---17b---17brp15---17br--17--15--17b------------
G|----------------------------------------------------------
D|----------------------------------------------------------
A|----------------------------------------------------------
E|----------------------------------------------------------

e|-------17----17-------------------------------------------
B|-------17b---17b---17brp15---17br--17--15-----------------
G|-------------------------------------------16-------------
D|----------------------------------------------------------
A|----------------------------------------------------------
E|----------------------------------------------------------

| /  slide up
|   slide down
| h  hammer-on
| p  pull-off
| ~  vibrato
| +  harmonic
| x  Mute note
===============================================================================


Текст, аккорды и табулатура для песни "Workin For Mca", исполняет "Lynyrd Skynyrd".
Используемые в песне аккорды можно найти в разделе Как брать аккорды. Аккорды для шестиструнной гитары. Другие песни можно найти на нашем сайте, воспользовавшись алфавитным указателем вверху страницы.


Слушать онлайн Working for MCA


A-Type PlayerWorking for MCA на Яндекс.Музыке


 
Ошибка в тексте? Выделите ошибку и нажмите Ctrl+Enter