Standard Tuning
Whats your name solo

---------------------------------------------17------------17----------17--|
---------------------17------17-------17-----17-----17-----17---17-----17--|
-----------------14--16^(18)-16^(18)--16^(18)-------16^(18)-----16^(18)----|
---------14--16------------------------------------------------------------|
---12/16-------------------------------------------------------------------|
---------------------------------------------------------------------------|

--------------------------------------------------------------------------|
--------------------------------------------------------------------------|
---14---16p14------14h16--16-16---------14-16p14-----14-14-14---------14--|
---------------16----------------14h16------------16------------14h16-----|
--------------------------------------------------------------------------|
--------------------------------------------------------------------------|

--------------------------------------------------------------------------|
--------------------------------------------------------------------------|
---16p14------14--16^(18)-------------14------------------14----------14--|
----------16-----------------14---16------16/(d)-----14h16----16p14-14----|
--------------------------------------------------------------------------|
--------------------------------------------------------------------------|

--------------------------------------------------------------------------|
--------------------------------------------------------------------------|
--------------------------------------------------------------------------|
--------------------------------------------------------------------------|
--16/14--12--14p12-----12v-12v-12v-x--------12--14p12------12-12/---------|
-------------------14-----------------12h14------------14-----------------|

--------------------------------------------------------------------------|
--------------------------------------------------------------------------|
-------------------------14----------14--14----14---14---14----14----14---|
----------14--16--14-16-------14-16------14h16------14h16------14h16------|
---12/16------------------------------------------------------------------|
--------------------------------------------------------------------------|

--------------------------------------------------------------------------|
--------------------------------------------------------------------------|
----14----14---14----14---14----14---14----14--16p14----14-16^(19)--------|
----14h16------14h16------14h16------14h16-----------16-------------------|
--------------------------------------------------------------------------|
--------------------------------------------------------------------------|

--------------------------------------------------------------------------|
--------------------------------------------15--15--17--------------------|
------------14--------------------14--14-14h16--14--16^(18)---------------|
--14---16--------16/(d)--------14h16--14----------------------------------|
--------------------------------------------------------------------------|
--------------------------------------------------------------------------|

key
h hammer
p pull
/ slide
^()bend and number tells you if it is a half(half step)or full(wholestep)
   bend
/(d) slide down the neck
v vibrato
x muted string (I used this when i know they did something but just couldn't
  tell what they did)

This is a fun and easy solo. Its almost perfect. Real version uses a lot of vibrato but 
dont need that. Have fun. MWP


Текст, аккорды и табулатура для песни "Whats Your Name", исполняет "Lynyrd Skynyrd".
Используемые в песне аккорды можно найти в разделе Как брать аккорды. Аккорды для шестиструнной гитары. Другие песни можно найти на нашем сайте, воспользовавшись алфавитным указателем вверху страницы.


 
Ошибка в тексте? Выделите ошибку и нажмите Ctrl+Enter