Tuesdays Gone – Lynyrd Skynyrd
-------------------------------------------------------------------------------

Tabbed by:Kevin
Email:[email protected]

Tuning:normal

e|-9--9-10--9---7--9--77--5--7-9--2---3-5-7-9--9-10-9-7-0-7-7---0----0----0-------------------------------------------|
B|--------------------------------------------------------------------------------3----3----3-------------------------|
G|-------------------------------------------------------------------------------------------------4~----2—4~---------|
D|------------------------------------------------------------------------------------------------------------------2-|
A|--------------------------------------------------------------------------------------------------------------------|
E|--------------------------------------------------------------------------------------------------------------------|

e|-----------------------------------------------------------------------------------------------------0----0----0----|
B|---------------------------------------------------------------------------------------------------------3----3---3-|
G|-4~--2--2--4-----------4~--2---4~-----4~--2-2—4~----------------2--4---6----4~--------------------------------------|
D|----------------4--5-7------------------2------------------------2-----4--------------------------------------------|
A|-----------------------------------------------------------4/5---2-----4-----------------2-2-0----------------------|
E|--------------------------------------------------------------------------------------------------------------------|
It then goes into some chords that are simple but im not sure which ones they are yet. Have trouble= email me

| /  slide up
| ~  vibrato


Текст, аккорды и табулатура для песни "Tuesdays Gone", исполняет "Lynyrd Skynyrd".
Используемые в песне аккорды можно найти в разделе Как брать аккорды. Аккорды для шестиструнной гитары. Другие песни можно найти на нашем сайте, воспользовавшись алфавитным указателем вверху страницы.


 
Ошибка в тексте? Выделите ошибку и нажмите Ctrl+Enter