Sweet Home Alabama
Lynard Skynard

Havent seen the solo yet, so here it is.  It is from a very good source.

h - hammer on
p - pull off
* - bend 1/2 step
** - bend 1 full step
**+ - bend one full step and return
*** - bend more than 1 full step
/ - slide up or down
# - vibrato
*+* - ghost bend

Distortion

|------------------------------------------------------------------------------------------------------
|---------------------------------------------------------8---8h10***---8---8--------------------------
|-----0-2/4-2-2-2*--2*--2*--(2)**+-(2)*-0---0-0-------/9----9-------------9---9p7--7-7-7-7---7---9-7-7-
|-0h2-------------------------------------2----------------------------------------------------9-------
|------------------------------------------------------------------------------------------------------
|------------------------------------------------------------------------------------------------------


note: in this following piece, the pull-off notes are 32nd notes.

|---------------------------------------------------------------------------------------------------------
|---------------------------------------------------------------------------------------------------------
|------12----12-14p12----12-17p12----12-17p12----12-16p12----12-16p12----12-16p12----12-16p12----12-16p12-
|-9/14----14----------14----------14----------14----------14----------14----------14----------14----------
|---------------------------------------------------------------------------------------------------------
|---------------------------------------------------------------------------------------------------------

note: in this following piece, the pull-off notes are 32nd notes.

|----------------------------------------------------------------------------------
|----------------------------------------------------------------------------------
|----12-16p12----12-14p12----12-14p12----12-17p12----12-17p12----12-17p12----12----
|-14----------14----------14----------14----------14----------14----------14----14-
|----------------------------------------------------------------------------------
|----------------------------------------------------------------------------------

|-------------------------------------------12----12h15-15#--15#--15#-15#-15#--15#-15#-15#--15#-15#-15#--
|-------------------------------12----12h15----15--------------------------------------------------------
|-------12----------12----12h14----14--------------------------------------------------------------------
|----------14/12/14----14--------------------------------------------------------------------------------
|-13/14--------------------------------------------------------------------------------------------------
|--------------------------------------------------------------------------------------------------------

note: the bends in this piece here are worth one notes themselves.  ususally a
bent note is one single note, but in this part, the note is struck and then bent
for the following note (bend in parentheses).

|-15#-15#-15#--15#-15#-15#-13-----12----12-----------12-----------12-----------12-----------12-----------12-----------
|------------------------------------15----15-(15)**----15-(15)**----15-(15)**----15-(15)**----13-(13)**----15-(15)**-
|---------------------------------------------------------------------------------------------------------------------
|---------------------------------------------------------------------------------------------------------------------
|---------------------------------------------------------------------------------------------------------------------
|---------------------------------------------------------------------------------------------------------------------

|-12----------------------------------------------------------------------------------------------
|----15p12----12----------------------------------------------------------------------------------
|----------15----15p14-12-------------------------------------------------------------------------
|-------------------------14-12----------------------------------------------------------------12-
|-------------------------------14p12-10-10-10-12----10h12-12--10----10-10---10-12----10-12h14----
|-------------------------------------------------12--------------12---------------12-------------

|--------------------------------------------------------------------15-17**----17**----17**----17-15----
|-----------------------------------------12-15p12-15p12-------15h17----------------------------------17-
|----------------12----12-14----12-14**------------------14h16-------------------------------------------
|-14----12-12-14----14-------14--------------------------------------------------------------------------
|----14--------------------------------------------------------------------------------------------------
|--------------------------------------------------------------------------------------------------------

|-15-----------------------------------------------------------------------------------------------
|----17-15--12----12-------------------------------------------------------------------------------
|--------------15----15p14-12-------12#-----------14**-14*+*-14-12-----14-10h11--------------------
|-----------------------------14-12------------12-------------------------------12-----------------
|----------------------------------------------------------------------------------12----12p10-----
|--------------------------------------------------------------------------------------------------


Текст, аккорды и табулатура для песни "Sweet Home Alabama (solo ver 2)", исполняет "Lynyrd Skynyrd".
Используемые в песне аккорды можно найти в разделе Как брать аккорды. Аккорды для шестиструнной гитары. Другие песни можно найти на нашем сайте, воспользовавшись алфавитным указателем вверху страницы.


 
Ошибка в тексте? Выделите ошибку и нажмите Ctrl+Enter