*Sweet Home Alabama - Lynyrd Skynyrd*
 
 tabbed by Alan (The Guitar Maniac!©)
 
 [email protected] 

 Intro:

      D         C              G
                                                  
 E|----------------------------3------------------|
 B|-------3---------3----------0------------------|
 G|---------2-0-------0--------0------------------|
 D|---0-0----------------------0------0h2-0-------|
 A|-------------3-3----3-------2--0h2------h2-0h2-|
 E|------------------------3-3-3------------------|

    D         C              G
 E|--------------------------3--------------------|
 B|-----3---------3----------0--------------------|
 G|-------2-0-------0--------0-0-0-2p0-0-4p0-0-5b-|
 D|-0-0----------------------0--------------------|
 A|-----------3-3----3-------2--------------------|
 E|----------------------3-3-3--------------------|

 
             
    (Guitar 2 comes in and plays the chords)  
      D         C          G                        
 E|----------------------------3------------------|
 B|-------3---------3----------0------------------|
 G|---------2-0-------0--------0------------------|
 D|---0-0----------------------0------0h2-0-------|
 A|-------------3-3----3-------2--0h2------h2-0h2-|
 E|------------------------3-3-3------------------|



      D         C          G                        
 E|----------------------------3------------------|
 B|-------3---------3----------0------------------|
 G|---------2-0-------0--------0--------0---------|
 D|---0-0----------------------0------0-----------|
 A|-------------3-3----3-------2--0h2-------------|
 E|------------------------3-3-3------------------|


   
Verse and Chorus:  

      D         C          G                        
 E|----------------------------3------------------|
 B|-------3---------3----------0------------------|
 G|---------2-0-------0--------0------------------|
 D|---0-0----------------------0------0h2-0-------|
 A|-------------3-3----3-------2--0h2------h2-0h2-|
 E|------------------------3-3-3------------------|



      D         C          G                        
 E|----------------------------3------------------|
 B|-------3---------3----------0------------------|
 G|---------2-0-------0--------0------------------|
 D|---0-0----------------------0------0h2-0-------|
 A|-------------3-3----3-------2--0h2------h2-0h2-|
 E|------------------------3-3-3------------------|

      
      D         C          G                        
 E|----------------------------3------------------|
 B|-------3---------3----------0------------------|
 G|---------2-0-------0--------0------------------|
 D|---0-0----------------------0------0h2-0-------|
 A|-------------3-3----3-------2--0h2------h2-0h2-|
 E|------------------------3-3-3------------------|


      D         C          G                        
 E|----------------------------3-----3-|
 B|-------3---------3----------0-----0-|
 G|---------2-0-------0--------0-----0-|
 D|---0-0----------------------0-----0-|
 A|-------------3-3----3-------2-----2-|
 E|------------------------3-3-3-3-3-3-|

    then hit this riff snd do it twice:
 E|---------------------------------------------|
 B|---------------------------------------------|
 G|-------7-7---------5-5------------0-0--------|
 D|-------7-7---------5-5----------0-----0------|
 A|-7h8h9-----97-5/7-----7--0h2--------------|
 E|---------------------------------------------|


 So you get the point. It is pretty much just the same
 over and over again. 
 Just play the first part of the verse for the chorus.
 
 Any questions go to Alan - [email protected]


Текст, аккорды и табулатура для песни "Sweet Home Alabama", исполняет "Lynyrd Skynyrd".
Используемые в песне аккорды можно найти в разделе Как брать аккорды. Аккорды для шестиструнной гитары. Другие песни можно найти на нашем сайте, воспользовавшись алфавитным указателем вверху страницы.


Слушать онлайн Sweet Home Alabama


Lynyrd SkynyrdSweet Home Alabama на Яндекс.Музыке


 
Ошибка в тексте? Выделите ошибку и нажмите Ctrl+Enter