I Ain't The One
Lynyrd Skynyrd

(drum intro begins song...)

|-------|------------------------------|---------------------|
|-------|------------------------------|---------------------|
|-2-----|-2---2-------------2----------|----2---------------2|
|-x-----|------------------------------|--------------------x|
|-3-----|-0---0---0h3h4-0---0---0h3h4-0|----0---0h3h4-0-----3|
|-------|------------------------------|---------------------|

|------------------------------|-------------------------|
|------------------------------|-------------------------|
|-2---2-------------2----------|----2---2-2---2---------9|
|------------------------------|------------------7-----9|
|-0---0---0h3h4-0---0---0h3h4-0|----0---0-0---0---5-----7|
|------------------------------|------------------5------|

Guitar Solo Intro

|-15b(17)>>>>>>>>>>-----15b(17)---|-17-15--------------------------|---------------------------|
|---------------------------------|-------15-17-19---------------15|---------------------------|
|---------------------------------|----------------17b(19)>>>>>----|-14~~~~~~~~~-17----17b(19)-|
|---------------------------------|--------------------------------|----------------19---------|
|---------------------------------|--------------------------------|---------------------------|
|---------------------------------|--------------------------------|---------------------------|

|-----20b(22)---21b(22)---21---17h20p17----17--------------|
|--17-----------------------------------17----17-20b(22)>>>|
|----------------------------------------------------------|
|----------------------------------------------------------|
|----------------------------------------------------------|
|----------------------------------------------------------|

(Rhythm Guitar behind solo... the first measure of the rhythm guitar is played
behind the first measure of the solo; the second measure of the rhythm guitar is
played behind the second measure of the solo; etc.)

|--------------------------|--------------------------|--------------------------|
|--------------------------|--------------------------|--------------------------|
|--------------------------|--------------------------|--------------------------|
|-2-------------2-----5---5|-2-------------2----------|-2-------------2-----5---5|
|-0-----0-0-3h4-0-----3---3|-0-----0-0-3h4-0-----5----|-0-----0-0-3h4-0-----3---3|
|--------------------------|---------------------3----|--------------------------|

|--------------------------------|
|--------------------------------|
|-----------------7-5---5--------|
|-2---------------7-5---5-7-5---5|
|-0-----0-0-3h4-----------7-5---5|
|--------------------------------|


Текст, аккорды и табулатура для песни "I Aint The One", исполняет "Lynyrd Skynyrd".
Используемые в песне аккорды можно найти в разделе Как брать аккорды. Аккорды для шестиструнной гитары. Другие песни можно найти на нашем сайте, воспользовавшись алфавитным указателем вверху страницы.


 
Ошибка в тексте? Выделите ошибку и нажмите Ctrl+Enter