Gimme Three Steps Solos
Lynyrd Skynyrd

All bends shown are full bends except where starred (*)... starred bends are 3/4
bends... double starred bends are 1/2 bends... triple starred bends are 1/4 bends.

                                       *     *    *    *         *
|-------------------|-------------------|---------------------|------------------|
|-------------------|-----------------5-|-(5)----5----5----2--|-5----2---2-3-2---|
|-109-7-109-7-109|-7-109-7-109-7-4b|-(4)b---4b---4br4-2--|-4br4-2---2-4-2--/|
|-109-7-109-7-109|-7-109-7-109-7---|--------------------4|--------4-------4/|
|-------------------|-------------------|---------------------|------------------|
|-------------------|-------------------|---------------------|------------------|

|--------------------|-----------------------|----------------|------------------------|
|--------------------|-----------------------|----------------|----x-10---(10)2-------|
|-/109-7-109-7-109|-7-109-7-109-7---(7)|---------------2|----x-9----(9)-2-/11---|
|-/109-7-109-7-109|-7-109-7-109-7---(7)|-----------2---2|------------------/11---|
|--------------------|-----------------------|-------2-4---4-0|------------------------|
|--------------------|-----------------------|-0-3-4----------|------------------------|

|-------------------|-------------------|-------------------|---------------------|
|-------------------|-------------------|---8---8-----------|---------------------|
|-109-7-109-7-109|-7-109-7-109-7---|-------------9-11-9|~~~~~~~~~~~~~~(9)---|
|-109-7-109-7-109|-7-109-7-109-73/|/5---5---/11-------|---------------------|
|-------------------|-------------------|-------------------|---------------------|
|-------------------|-------------------|-------------------|---------------------|

|-------------------|------------------|-----------------|----------------|
|-------------------|------------------|-----------------|----------------|
|-109-7-109-7-109|-7-109-7-109-7-4|-54-2-54-109-7|-----7---7-7---7|
|-109-7-109-7-109|-7-109-7-109-7-4|-54-2-54-109-7|-----7---7-7---7|
|-------------------|------------------|----------------5|-----5---5-5---5|
|-------------------|------------------|-----------------|----------------|

|--------------------|
|--------------------|
|-----7---7-7-(7)---|
|-----7---7-7-(7)---|
|-----5---5-5-(5)---|
|--------------------|

Outro Solo

   H.B.---->  --------> --------->                           ***    **---->
|------|--------------------|-----------------|----------------------|
|-10-10|-10-----10-10-----10|-10----7---7-9-7|----------------------|
|-9b-9b|-9b-r9b-9b-9b-r9b-9b|-9b-r9-7---7-9-7|-----2-----2-4b---(4)b|
|------|--------------------|---------9-------|----------------------|
|------|--------------------|-----------------|-3h4---3h4------------|
|------|--------------------|-----------------|----------------------|

-->**                      ------>   ------>
|----------------------|----------------------|------------------|----------------|
|--------------------5/|/10-10-10-----10-10---|-7---7-10----7---|----------------|
|-4br4p2-4-2-4p2---2-4/|/9b-9b-9b-r9b-9b-9b-r9|-7---7-9b-r9-7---|----------------|
|----------------2-----|----------------------|---9--------------|-----------2----|
|----------------------|----------------------|------------------|-------2-4---4-0|
|----------------------|----------------------|------------------|-0-3-4----------|

             ** *        ------>      ---->
|----------------|--------------------|-----------------|----------------|
|------10---10-10|-10-----10-10-----10|-10----7---7-9-7|---8---8--------|
|------9----9b-9b|-9b-r9b-9b-9b-r9b-9b|-9b-r9-7---7-9-7|----------------|
|----------------|--------------------|---------9-------|-5---5---5-4-3-2|
|----------------|--------------------|-----------------|----------------|
|----------------|--------------------|-----------------|----------------|

           ------>        ------>
|-------------------|---------------------|-------------------|----------------|
|------10---10-10---|------10-10----7---10|---------7---7-9-7|-2---2---2---0-3|
|------9--b-9b-9b-r9|-(9)b-9b-9b-r9-7---9-|-(9)b-r9-7---7-9-7|-2---2---2-----2|
|-------------------|-----------------9---|-----------9-------|---------------0|
|-------------------|---------------------|-------------------|----------------|
|-------------------|---------------------|-------------------|----------------|

                 **                             *                              *
|----------------------|-------------------|---------------------|----------------------------|
|--3---(3)/10----------|-10----7---7---7-10|---------7---7-9-7--|2/10/17-------17------14---|
|--2---(2)/9--(9)b-(9)b|-9b-r9-7---7---7-9-|-(9)b-r9-7---7-9-7--|2/9-/16-(16)b-16b-r16-14---|
|--0-------------------|-------------9-----|-----------9---------|--------------------------16|
|----------------------|-------------------|---------------------|----------------------------|
|----------------------|-------------------|---------------------|----------------------------|

                                *->**  ---->
|--------------------------|----------------------|-------------------|----------------|
|-17------14----14-16-14-10|------10-----10----7--|-10----7---7-9-7--|----------------|
|-16b-r16-14----14-16-14-9-|-(9)b-9b-r9b-9b-r9-7--|-9b-r9-7---7-9-7--|----------------|
|------------16------------|---------------------9|---------9---------|-----------2----|
|--------------------------|----------------------|-------------------|-------2-4---4-0|
|--------------------------|----------------------|-------------------|-0-3-4----------|

|-------------------|-----------------------|-----10-----------10-----|----------------|
|------x-10---10---|----10---------7---7-10|----------10---------7--|---8---8--------|
|------x-9----9----|----9--(9)b-r9-7---7-9-|(9)b------9--(9)b----7--|---------0------|
|-------------------|-----------------9-----|-------------------------|-5---5-----4-3-2|
|-------------------|-----------------------|-------------------------|----------------|
|-------------------|-----------------------|-------------------------|----------------|


Текст, аккорды и табулатура для песни "Gimme Three Steps", исполняет "Lynyrd Skynyrd".
Используемые в песне аккорды можно найти в разделе Как брать аккорды. Аккорды для шестиструнной гитары. Другие песни можно найти на нашем сайте, воспользовавшись алфавитным указателем вверху страницы.


Слушать онлайн Gimme Three Steps


Lynyrd SkynyrdGimme Three Steps на Яндекс.Музыке


 
Ошибка в тексте? Выделите ошибку и нажмите Ctrl+Enter