Free Bird
Lynyrd Skynyrd

Tabbed By: Matt Lenda - [email protected]

Key:
h = hammer on
p = pull off
/ = slide up
 = slide down
/>> or >> = long slide/sustain slide/steady gliss

Chords:

G Em F C D
|-3---|-0---0---|-1---0---|-2---|
|-0---|-0---0---|-1---1---|-3---|
|-0---|-0---0---|-2---0---|-2---|
|-0---|-2---2---|-3---2---|-0---|
|-2---|-2---2---|-3---3---|-----|
|-3---|-0---0---|-1-------|-----|

Play the chords as chown above... then this:

|----|--------------------------------|--------------------------------|
|----|--------------------------------|--------------------------------|
|----|--------------------------------|--------------------------------|
|----|-----0-------0-------0-------0--|-----2-------2-----2-----2-----2|
|----|---------2-----2---------0-----0|---------------2-----2-----2----|
|-0-2|-3---------3-----2---------2----|-0-------3-0-----0-----0-----0--|

|--------------------------------|--------------------------------|
|--------------------------------|-------3-------3-------3--------|
|---------------------0---------0|-0h2-----0h2-----0h2-----0h2/7/>|
|-----3-------3---------2-3-2----|-----0-------0-------0----------|
|---------3-----0-3-----------3--|--------------------------------|
|-1---------1--------------------|--------------------------------|

Intro
Play with a slide, over the above figure.

|--------------------------------|---------------------------------|
|--------------------------------|---------------------------------|
|-(7)/12-------11-/12-11-------12|-121197/9/11---7/9-----97----|
|--------------------------------|------------------------------9-9|
|--------------------------------|---------------------------------|
|--------------------------------|---------------------------------|

|--------------------------------------|--------------------------------------------|
|--------------------------------------|--------------------------------------------|
|-------10-10-109--------------4-5---7|-(7)5/7-------(7)/1917----18/19---(19)---|
|-/10--------------10--------/5--------|-------------------------19-----------------|
|---------------------10>>>>----------|--------------------------------------------|
|--------------------------------------|--------------------------------------------|

|---------------------------------|-------------------------------------|
|---------------------------------|-------------------------------------|
|-11/12-------11-/12-11---------12|-12119---(9)>>>>>4---(4)/>>97----|
|---------------------------------|----------------------------------9-9|
|---------------------------------|-------------------------------------|
|---------------------------------|-------------------------------------|

|-------------------------------------|--------------------------------|
|-------------------------------------|--------------------------------|
|-------10---109--------------4-5---7|-(7)5/7-------76---7-----9/>>>|
|-/10-------------10--------/5--------|-------------------7-----7------|
|--------------------10>>>>----------|--------------------------------|
|-------------------------------------|--------------------------------|

Verse 1

If I leave here... 
|---------------------------------|------------------------|----------------------------|
|---------------------------------|------------------------|----------------------------|
|-(9)/12--------------------------|-7/>>>>9---------98----|---------------------4-5---7|
|---------------------------------|---------------------9-9|-/10-----------1/2/5--------|
|---------------------------------|------------------------|----------------------------|
|---------------------------------|------------------------|----------------------------|

Well I must be...
|------------------------------------------|--------------------------------|
|------------------------------------------|--------------------------------|
|-(7)6/7---(7)/>>19-1917----18/19---(19)|-11/>12-------------------------|
|--------------------------19--------------|--------------------------------|
|------------------------------------------|--------------------------------|
|------------------------------------------|--------------------------------|

'Cause there's...
|------------------------|------------------------------------|
|------------------------|------------------------------------|
|-7/>>>>9---------98----|-----------------------------4-5---7|
|---------------------9-9|-/109/10>>>>>>>7-----1/>>5--------|
|------------------------|------------------------------------|
|------------------------|------------------------------------|

But if I...
|---------------------------------------------------|--------------------------------|
|---------------------------------------------------|--------------------------------|
|-(7)6/76/7---(7)/>>19-1918/1918/19-----(19)---|-11/>12-------------------------|
|---------------------------------------------------|--------------------------------|
|---------------------------------------------------|--------------------------------|
|---------------------------------------------------|--------------------------------|

Things just couldn't...
|------------------------|---------------------------------|---------------------------------|
|------------------------|---------------------------------|---------------------------------|
|-7/>>>>9---------98----|--------------------------4-5---7|-(7)6/7---------76---7-----9/>>|
|---------------------9-9|-/10>>>>>>>>>>>>---1/>>5--------|---------------------7-----7-----|
|------------------------|---------------------------------|---------------------------------|
|------------------------|---------------------------------|---------------------------------|

Cause I'm as free as a bird
|-----------------------------------|-------------------------------|
|-----------------------------------|-------------------------------|
|-/12---------------12>>11-------12|-12119---(9)>>>>-----97----|
|-----------------------------------|----------------------------9-9|
|-----------------------------------|-------------------------------|
|-----------------------------------|-------------------------------|

And this bird... Oh__________________
|-------------------------------|-------------------------------------|
|-------------------------------|-------------------------------------|
|----------------------9-10---12|-11/12-------1211/1211-1211/12---|
|-/10-----------3/>>10----------|-------------------------------------|
|-------------------------------|-------------------------------------|
|-------------------------------|-------------------------------------|

And the bird...
|-------------------------------------|-------------------------------------12/19-------|
|-------------------------------------|-------------------------------------------------|
|-/10-------109----------------9/>>19|-1917----1917----1917----1917----------19---|
|----------------10-------------------|-------19-------19-------19-------19-------------|
|-------------------105-5/>>10-------|-------------------------------------------------|
|-------------------------------------|-------------------------------------------------|

And this bird...
|-----------------------------------------|----------------------------------|
|-----------------------------------------|----------------------------------|
|-/10-------109--------------------------|----------------------------------|
|----------------10--------------9-10---10|-/12-------(12)7/>>>>>>>>>>>>>>>>|
|-------------------10---5/>>10----------|----------------------------------|
|-----------------------------------------|----------------------------------|

Lord knows...
|--------------------------------------|-----------------------------|
|--------------------------------------|-----------------------------|
|-/10-------109----------------4-5---7|-(7)6/7-------76/76/7-7/>>|
|----------------10--------------------|-----------------------------|
|-------------------10---7/>>10--------|-----------------------------|
|--------------------------------------|-----------------------------|

Interlude

|-----------------------------------|-----------------------------------|
|-----------------------------------|-----------------------------------|
|-/12---------11-/12---11---------12|-121197/9/11---7/9-------98----|
|-----------------------------------|--------------------------------9-9|
|-----------------------------------|-----------------------------------|
|-----------------------------------|-----------------------------------|

|--------------------------------------|-----------------------------12/17--------|
|--------------------------------------|------------------------------------------|
|-------10-10-109--------------4-5---7|-(7)6/7---(7)/>>19-1917------------19--|
|-/10--------------10---------5--------|--------------------------19--------------|
|---------------------10--------------|------------------------------------------|
|--------------------------------------|------------------------------------------|

|-----------------------------------|--------------------------------|
|-----------------------------------|--------------------------------|
|-11/12-------11/12---11---------/12|-121197/9>>7---4/9-9-97----|
|-----------------------------------|-----------------------------9-9|
|-----------------------------------|--------------------------------|
|-----------------------------------|--------------------------------|

|-----------------------------------------|---------------------------------|
|-----------------------------------------|---------------------------------|
|-------10-10-109-----------------4-5---7|-(7)6/7---------76---7-----9/>>|
|-/10--------------10-----------/5--------|---------------------7-----7-----|
|---------------------10-(10)------------|---------------------------------|
|-----------------------------------------|---------------------------------|

Verse 2

Bye bye baby... Though this feelin'...
|--------------------------------|--------------------------|--------------------------------|
|--------------------------------|--------------------------|--------------------------------|
|-(9)/12-------------------------|-7/>>>>>>9---------98----|-------------------------4-5---7|
|--------------------------------|-----------------------9-9|-(9)/10-----(10)---1/----------|
|--------------------------------|--------------------------|--------------------------------|
|--------------------------------|--------------------------|--------------------------------|

Please don't take this...
|------------------------------------------|-------------------------------|
|------------------------------------------|-------------------------------|
|-(7)6/7---(7)/>>19-19/17----18/19---(19)|-11/12-------------------------|
|--------------------------19--------------|-------------------------------|
|------------------------------------------|-------------------------------|
|------------------------------------------|-------------------------------|

'Cause the Lord knows...
|--------------------------|------------------------------|
|--------------------------|------------------------------|
|-7/>>>>>>9---------98----|-----------------------4-5---7|
|-----------------------9-9|-/109/10---------------------|
|--------------------------|------------------5/----------|
|--------------------------|------------------------------|

But if I stay here...
|------------------------------------------------------|-------------------------------|
|------------------------------------------------------|-------------------------------|
|-(7)6/76/7---(7)/>>>19-1918/1918/19---(19)>>>>>>>|-11/12-------------------------|
|------------------------------------------------------|-------------------------------|
|------------------------------------------------------|-------------------------------|
|------------------------------------------------------|-------------------------------|

Things just couldn't...
|--------------------------|--------------------------------------|
|--------------------------|--------------------------------------|
|-7/>>>>>>9---------97----|-------------------------------4-5---7|
|-----------------------9-9|-/109/10---(10)>>-------------------|
|--------------------------|--------------------------5/----------|
|--------------------------|--------------------------------------|

'Cause I'm as free as a bird...
|----------------------------------------------|-------------------------------|
|----------------------------------------------|-------------------------------|
|-(7)6/7---(7)/>>19-1917----17-17/19>>>>>>|-11/12-----------------------12|
|--------------------------19------------------|-------------------------------|
|----------------------------------------------|-------------------------------|
|----------------------------------------------|-------------------------------|

|-------------------------------|-------------------------------|
|-------------------------------|-------------------------------|
|-12119-----(9)-------98----|------------------------4-5---7|
|----------------------------9-9|-/10---------------------------|
|-------------------------------|-------------------5/----------|
|-------------------------------|-------------------------------|

And a bird...
|--------------------------------|------------------------------------|
|--------------------------------|------------------------------------|
|-(7)6/7---------76/76-76/75|-/10-------109--------------5------|
|--------------------------------|----------------10-------------5/---|
|--------------------------------|-------------------10--5/----------|
|--------------------------------|------------------------------------|

|---------------------------------------------------------------------------|
|---------------------------------------------------------------------------|
|-1917----1917----17----17----/19-17/1917/19----17----17----17----/19---|
|-------19-------19-----19----19-----------------19----19----19----19-------|
|---------------------------------------------------------------------------|
|---------------------------------------------------------------------------|

And this bird...
|-----------------------------------------|------------------------------------|
|-----------------------------------------|------------------------------------|
|-/10-------109-------------------4-5---4|-/7>>>>>>>>>>>>>>>2/>>>>>>>>>>>>>>>|
|----------------10-----------------------|------------------------------------|
|-------------------10-(10)5/>>10--------|------------------------------------|
|-----------------------------------------|------------------------------------|

Lord knows...
|-------------------------------------------|
|-------------------------------------------|
|->10-------109----------------------10/>>>|
|----------------10----------------10-------|
|-------------------10-(10)5/>>10----------|
|-------------------------------------------|

|-----------------------------------------------------------------------------|
|-----------------------------------------------------------------------------|
|-/1917----17------17----17----17----17----/19---/19----19----19----19----19|
|--------19------19----19----19----19----19-----------19----19----19----19----|
|-----------------------------------------------------------------------------|
|-----------------------------------------------------------------------------|

I can't change_________________________
|-----------------------------------------|--------------------------------|
|-----------------------------------------|--------------------------------|
|-/10-------109-------------------4-5---6|-/76-76/76/76-76/7-76/7-6/|
|----------------10-----------------------|--------------------------------|
|-------------------10-(10)5/>>10--------|--------------------------------|
|-----------------------------------------|--------------------------------|

Lord I can't change 
|-----------------------------|-----------------------------|-----------------------------|
|-----------------------------|-----------------------------|-----------------------------|
|-/12-------------------------|-----------------------------|-----------------------------|
|-----------------------------|-----------------------------|-----------------------------|
|-----------------------------|-----------------------------|-----------------------------|
|-----------------------------|-----------------------------|-----------------------------|

Won't you fly_______________________________________________
_________
|-----------------------------|-----------------------------|-----------------------------|
|-----------------------------|-----------------------------|-----------------------------|
|-----------------------------|-----------------------------|-----------------------------|
|-----------------------------|-----------------------------|-----------------------------|
|-----------------------------|-----------------------------|-----------------------------|
|-----------------------------|-----------------------------|-----------------------------|

free______________________ bird yeah!
|-----------------------------|-----------------------------|
|-----------------------------|-----------------------------|
|-----------------------------|-----------------------------|
|-----------------------------|-----------------------------|
|-----------------------------|-----------------------------|
|-----------------------------|-----------------------------|


Текст, аккорды и табулатура для песни "Free Bird", исполняет "Lynyrd Skynyrd".
Используемые в песне аккорды можно найти в разделе Как брать аккорды. Аккорды для шестиструнной гитары. Другие песни можно найти на нашем сайте, воспользовавшись алфавитным указателем вверху страницы.


Слушать онлайн Free Bird


Lynyrd SkynyrdFree Bird на Яндекс.Музыке


 
Ошибка в тексте? Выделите ошибку и нажмите Ctrl+Enter