The Lyndsay Diaries - The Tops of Trees are on Fire
By: Andrew Mcshan ([email protected])

Intro/Verse
e|---------------------------------------------------------------------------|
B|----4-3-4-----4-3--4-------4---3--4---4-3--4-------4/3/5/6/3/4-------------|
G|-----------3----------3----------------------3--------------------3--------|
D|---------------------------------------------------------------------------|
A|-3-3--------3----------3-3---3---3--3--------------------------------------|
E|-----------------------------------------------------4-4--------------4-4--|
 
or play these chords, pick them sometimes
    
Cm             G#M
e|---------------------------------------------------------------------------|
B|-4-------------------------------------------------------------------------|
G|-5------------5------------------------------------------------------------|
D|-5------------6------------------------------------------------------------|
A|-3------------6------------------------------------------------------------|
E|--------------4------------------------------------------------------------|
The tops of trees are on fire
and tonight these torches give us light
that we might have some direction in our lives

Chorus
e|---------------------------------------------------------------------------|
B|---------------------------------------------------------------------------|
G|-8----8--------------------------------------------------------------------|
D|-8-8--8---8--------------------------------------10------------------------|
A|-6-8--6---8--------------------------------------10------------------------|
E|---6------6--------------------------------------8-------------------------|
But I can't see much of anything right now.
No I can't see.

Verse
Cm             G#M
e|---------------------------------------------------------------------------|
B|-4-------------------------------------------------------------------------|
G|-5------------5------------------------------------------------------------|
D|-5------------6------------------------------------------------------------|
A|-3------------6------------------------------------------------------------|
E|--------------4------------------------------------------------------------|
I watched you come home from the mountains.
We all just thought it was a bad dream,
but in reality we knew the honest to god truth.

Chorus
e|---------------------------------------------------------------------------|
B|---------------------------------------------------------------------------|
G|-8----8--------------------------------------------------------------------|
D|-8-8--8---8--------------------------------------10------------------------|
A|-6-8--6---8--------------------------------------10------------------------|
E|---6------6--------------------------------------8-------------------------|
Now all we ask is a little sympathy from the clouds.


Verse
Cm             G#M
e|---------------------------------------------------------------------------|
B|-4-------------------------------------------------------------------------|
G|-5------------5------------------------------------------------------------|
D|-5------------6------------------------------------------------------------|
A|-3------------6------------------------------------------------------------|
E|--------------4------------------------------------------------------------|
Now isn't it fate we're chasing after?
Or is she chasing after us?
Or has she come to kiss us our death depart?

Chorus
e|---------------------------------------------------------------------------|
B|---------------------------------------------------------------------------|
G|-8----8--------------------------------------------------------------------|
D|-8-8--8---8--------------------------------------10------------------------|
A|-6-8--6---8--------------------------------------10------------------------|
E|---6------6--------------------------------------8-------------------------|
We finally have a full understanding,
but I wish it wasn't on these terms.
Friend to friend.
I would do anything to make it end.

Bridge
e|---------------------------------------------------------------------------|
B|---------------------------------------------------------------------------|
G|---------------------------------------------------------------------------|
D|--10--10--8----------------------------------------------------------------|
A|--10--10--8----------------------------------------------------------------|
E|--8---12--6----------------------------------------------------------------|

e|---------------------------------------------------------------------------|
B|---------------------------------------------------------------------------|
G|-8----8--------------------------------------------------------------------|
D|-8-8--8---8--------------------------------------10------------------------|
A|-6-8--6---8--------------------------------------10------------------------|
E|---6------6--------------------------------------8-------------------------|


Текст, аккорды и табулатура для песни "The Tops Of Trees Are On Fire", исполняет "Lyndsay Diaries".
Используемые в песне аккорды можно найти в разделе Как брать аккорды. Аккорды для шестиструнной гитары. Другие песни можно найти на нашем сайте, воспользовавшись алфавитным указателем вверху страницы.


 
Ошибка в тексте? Выделите ошибку и нажмите Ctrl+Enter