Standard Tuning
CAPO 2ND FRET!!!

Ok this is the best I can do to tab lullaby by Stephen Lynch.

The chorus is the 'right after daddy gets home from the bar' kinda stuff,
and the bridge is 'please don't cry I swear i'll try' etc.

And the Pre chorus is the 'soon it will all be like it was'.

Hope this is easy enough to understand.



Verses

|-------0-----------0-----------0------------0-------------|
|-----3---3-------3---3-------3----3-------3---3-----------|
|---0-------0---0-------0---0--------0---0-------0---------|
|-------------------------0--------------------------------|
|-------------3------------------------3-------------------|
|-0--------------------------------------------------------|

Then this as final part before pre-chorus

|-------0-----------0-----------0------------0-----|
|-----3---3-------3---3-------3----3-------3---0---|
|---0-------0---0-------0---0--------0---0-------0-|
|-------------------------0------------------------|
|-------------3------------------------3-----------|
|-0------------------------------------------------|

Pre chorus

  Am                      C
|-------0-----------0-----------0-----------0-----|
|-----1---1-------1---1-------1---1-------1---1---|
|---2-------2---2-------2---2-------2---2-------2-|
|-------------------------------------------------|
|-------------0-----------------------3-----------|
|-0-----------------------0-----------------------|

  G                       D
|-------3-----------3-----------2------------2-----|
|-----3---3-------3---3-------3----3-------3---3---|
|---0-------0---0-------0---2--------2---2-------2-|
|--------------------------------------------------|
|-------------2------------------------0-----------|
|-3-----------------------0------------------------|

Chorus

  G           D           Em          Am/C (whichevers easier)
|-------3-----------2-----------0-----------0--------|
|-----3---3-------3---3-------0---0-------1---1------|
|---0-------0---2-------2---0-------0---2-------2----|
|----------------------------------------------------|
|----------------------------------------------------|
|-3-----------0-----------0-----------0--------------|

Bridge - Play this 3 times

  C                       D
|-------0-----------0-----------2------------2--------|
|-----1---1-------1---1-------3----3-------3---3------|
|---2-------2---2-------2---2--------2---2-------2----|
|-----------------------------------------------------|
|-------------3------------------------0--------------|
|-0-----------------------0---------------------------|

Then...

  G                       D
|-------3-----------3-----------2------------2--------|
|-----3---3-------3---3-------3----3-------3---3------|
|---0-------0---0-------0---2--------2---2-------2----|
|-----------------------------------------------------|
|-------------2------------------------0--------------|
|-3-----------------------0---------------------------|


Текст, аккорды и табулатура для песни "Lullaby", исполняет "Lynch Stephen".
Используемые в песне аккорды можно найти в разделе Как брать аккорды. Аккорды для шестиструнной гитары. Другие песни можно найти на нашем сайте, воспользовавшись алфавитным указателем вверху страницы.


Слушать онлайн Lullaby


Stephen LynchLullaby на Яндекс.Музыке


 
Ошибка в тексте? Выделите ошибку и нажмите Ctrl+Enter