Вступление:

     Gm                         Eb+7        Dm
E||--------5---5/6-----------|---------------------------|
H||--------------------3-----|--------3-----------6--4/3-|
G||-----------------------3--|-----3-----3---------------|
D||-----5-----------5--------|--1--------------7---------|
A||--------------------------|--------------5------------|
E||--3-----------------------|---------------------------|
                                                    
   Gm                         Eb+7    Dm7 
|--------5---5/6-----------|----------1------------||
|--------------------3-----|-----3----1----4----3--||
|-----------------------3--|-----3----2------------||
|-----5-----------5--------|--1-------0------------||
|--------------------------|-----------------------||
|--3-----------------------|-----------------------||

 Gm                 
Маленькой девочке страшно одной
   Eb+7
И никто почему-то не спешит домой
    F
И она выбегает в подъезд и выше
 Eb+7
Маленькая девочка одна на крыше

Многоэтажки, застывший парад
И сквозь них навстречу рвется закат
Он дарит ей немного жалкого тепла
   Eb+7                Dm7
Ей это так нужно, ведь она так ждала...

	                                       иногда характерный  A|-----------3h5-| 
	 Eb                 D7     Gm/9 Gm <-- басовый ход         E|--3--5--6------|
	Маленькие дети на крышах домов
	Всех улиц, районов, кварталов, городов
	Тянут руки к солнцу, ловят тепло
	Но вот это солнце, растворившись, ушло...

	Проигрыш = вступление

Маленькие дети спешат по домам
Встречают там пап, встречают там мам
Маленькая девочка, где ты была?
Но как им объяснить, что не хватет тепла?

Как объяснить, что их дом и работа
И настоящая жизнь лишь по субботам?
Это не та жизнь, которую надо,
Мама, я хочу чтоб ты всегда была рядом!

Соло:

     Gm                       Eb+7
E||------------------------|------------------------|
H||------------------------|------------------------|
G||--12--------------10-12-|------------------------|
D||------------------------|--10----8----------10-8-|
A||------------------------|------------------------|
E||------------------------|------------------------|

   F                                  Eb+7          Dm7
|----------------------------------|----------------10--------||
|--------------13--10--------------|-------10---11------------||
|---------10------------10---12-10-|--12----------------------||
|-10/12----------------------------|--------------------------||
|----------------------------------|--------------------------||
|----------------------------------|--------------------------||

	Припев > 2 раза


Текст, аккорды и табулатура для песни "Детки", исполняет "Люмен".
Используемые в песне аккорды можно найти в разделе Как брать аккорды. Аккорды для шестиструнной гитары. Другие песни можно найти на нашем сайте, воспользовавшись алфавитным указателем вверху страницы.


 
Ошибка в тексте? Выделите ошибку и нажмите Ctrl+Enter