*******************************************************************
* LUCA TURILLI - WHERE HEROES LIE (From: King Of Nordic Twilight) *
*******************************************************************
 Music and Words By: Luca Turilli

Transcribed By: Niclas Buss (21-22.12.1999)
email: [email protected]

Please mail me if you can find mistakes!

-----------------------------------------

Normal Tuning

  Intro (Gtr.1)
E----------------------------------------------------------------------------------|
B----------------------------------------------------------------------------------|
G----------------------------------------------------------------------------------|
D--------------------------------------A.H...|-------------------------------------|
A--------6-8-9-------6-8-9-------6-8-9--9~-8~----------6-8-9-------6-8-9-------6-8-|
E--6-8-9-------6-8-9-------6-8-9-----------------6-8-9-------6-8-9-------6-8-9-----|

E----------------------------------------------------------------------------------|
B----------------------------------------------------------------------------------|
G----------------------------------------------------------------------------------|
D--------------------------------------------A.H...|-------------------------------|
A-9------------6-8-9-------6-8-9-------6-8-9--9~-8~----------6-8-9-------6-8-9----8|
E---4~--6-8-9-------6-8-9-------6-8-9-----------------6-8-9-------6-8-9-------4--|

		  Intro (Gtr.2)
E----------------------------------------------------------------------------------|
B---------------|------------------------------------------------------------------|
G---------------|------------------------------------------------------------------|
D---------------|-----------------11-10-------------------------------------11-10--|
A-6-4-----------|---8---8---8---9--8---8---8---8---6----8---8---8---9--8--|
E-----8-6-4/6~------6---6---6----------6---6---6---4----6---6---6---------|

			Guitar Solo 1 (Sascha)
E------------------------16~--b(18)~~----16b(18)r16p13--------------------------18-|
B---------------------|--------------------------------16b(18)r16p14--16-r-(18)----|
G---------------------|------------------------------------------------------------|
D---------------------|------------------------------------------------------------|
A--8---8---6----8---|------------------------------------------------------------|
E--6---6---4----6----------------------------------------------------------------|

E------16---------------------------------------------------13-----18----20b(21)~--|
B--18r----18p16-18-16p14-16-14-13-14----13-14--------/14---------------------------|
G------------------------------------15-------13-15------15----15-----15-----------|
D----------------------------------------------------------------------------------|
A----------------------------------------------------------------------------------|
E----------------------------------------------------------------------------------|

E-r20-p18--------------------------------------------------------------------------|
B---------16b(17Ѕ)-b(18)-r16-14---16--14b(16)-------------------------------------|
G-------------------------------15--------------18p15------------------------------|
D-----------------------------------------------------18p15-15-13-11h13p11--------|
A---------------------------------------------------------------------------11h13~-|
E----------------------------------------------------------------------------------|

  Verse 1						    w/Fill 1
E----------------------------------------------------------------------------------|
B----------------------------------------------------------------------------------|
G*---------------------------------------------------------------------------------|
D*------------------------------------------------------------6--------------------|
A---8------------------8------------------8-------------------4--6----8------------|
E---6-6-6-6-6-6-6-6-6--6-6-6-6-6-6-6-6-6--6-6-6-6-6-6-6-6-6------4----6-6-6-6-6-6-6|
     pm..............|  pm..............|  pm..............|           pm..........

					   w/Fill 2A/B  x2   Chorus (1)
E--------------------------------------------------------------------------------2-|
B----------------------------------------------------------|-----------------------|
G---------------------------------------------------------*|---------3-------------|
D----------------------------------------------6----------*|--6--------6-----------|
A------8------------------8--------------------4---6-------|--4---6------6---2-----|
E-6-6--6-6-6-6-6-6-6-6-6--6-6-6-6-6-6-6-6-6--------4--------------4----------0-----|
 ....|  pm..............|  pm..............|

									 Riff 1 (Gt
E-------2--------------------------------------------------------------------------|
B-4-------4------------------------------------------------------------|-----------|
G-----------4----------------------------------------------------------|-----------|
D----4--------------6---6--6-6---8----6--4--0------------6-------6----|-----------|
A----2----------4---4---5--5-5---6----4--2--1--6--6------6-------6----|--------4-6|
E---------------2-------------------------------3--4----4-4-4-4-4-4-------4-6-7----|
						       pm  pm....|
 r.1)
E----------------------------------------------------------------------------------|
B----------------------------------------------------------------------------------|
G----------------------------------------------------------------------------------|
D---------------------------A.H...|------------------------------------------------|
A-7-------4-6-7-------4-6-7--7~-6~--------4-6-7-------4-6-7-------4-6-7------------|
E---4-6-7-------4-6-7---------------4-6-7-------4-6-7-------4-6-7-------2~---4-6-7|

E----------------------------------------------------------------------------------|
B----------------------------------------------------------------------------------|
G----------------------------------------------------------------------------------|
D-------------------------------A.H....|-------------------------------------------|
A-4-6-7-------4-6-7-------4-6-7--7~-6~---------4-6-7-------4-6-7---6-4-2-----------|
E-------4-6-7-------4-6-7----------------4-6-7-------4-6-7-------2-------6-4-2/4~--|

  Riff 1 (Gtr.2)
E----------------------------------------------------------------------------------|
B----------------------------------------------------------------------------------|
G----------------------------------------------------------------------------------|
D-----------------9-8-------------------------------------9-8----------------------|
A--6---6---6---7-6---6---6---6---4---6---6---6---7-6---6---6---4---6---|
E--4---4---4---------4---4---4---2---4---4---4---------4---4---2---4---|

  Guitar solo 2 (Sascha)
E--14~-----------------------------17b(18)~~---16----16p13h16----------------------|
B-------16b(18)~---16b(18)-16-14-----------------18----------16-17-17b(18)~---r17p|
G----------------------------------------------------------------------------------|
D----------------------------------------------------------------------------------|
A----------------------------------------------------------------------------------|
E----------------------------------------------------------------------------------|

E-----------------------------------------/17b(18)-r16-13h16h13----13-------------|
B16p14/16-14h16p14----14h1614b(16)r----------------------------16----16p14----16p|
G------------------15-----------------15-------------------------------------15----|
D----------------------------------------------------------------------------------|
A----------------------------------------------------------------------------------|
E----------------------------------------------------------------------------------|

				   Chorus (2)
E----------------------------------------------------2--------2--------------------|
B14------------------|-----------|---------------------4--------4------------------|
G---15p13----13h15~--|--Verse-2--|---------3----------------------4----------------|
D---------15---------|-----------|--6--------6-------------4--------------6---6--6-|
A--------------------|-----------|--4---6--------2---------2----------4---4---5--5-|
E---------------------------------------4--------0--------------------2------------|

					    Guitar Solo 3 (Luca)
E--------------------------------------------16p13----------13h18p13h16p13---------|
B---------------------------|-------------|--------14----14----------------14----14|
G---------------------------|--Orchestra--|*----------13----------------------13---|
D-6-/-8---6---4---0---------|------&------|*---------------------------------------|
A-5-/-6---4---2---1-6---6---|----Vocals---|----------------------------------------|
E-------------------3---4----------------------------------------------------------|

E13h14h16-p13----------13h16-/18-16-14-13--14p11----------11h16p11h14p11----------|
B-------------14----14----------------------------13----13----------------13----13-|
G----------------13----------------------------------11----------------------11----|
D----------------------------------------------------------------------------------|
A----------------------------------------------------------------------------------|
E----------------------------------------------------------------------------------|

E11h13h14-p11----------11h14-/16-14-13-----/18p14----------14h19p14h18p14----------|
B-------------13----13-----------------16---------16----16----------------16----16-|
G----------------11----------------------------------15----------------------15----|
D----------------------------------------------------------------------------------|
A----------------------------------------------------------------------------------|
E----------------------------------------------------------------------------------|

E-14h16h18-p14----------14h18--/19-18-16-14----------------------------------------|
B--------------16----16---------------------18-16-14----------14-16----------------|
G-----------------15---------------------------------17-15-17--------------13-15-17|
D--------------------------------------------------------------------15-17---------|
A----------------------------------------------------------------------------------|
E----------------------------------------------------------------------------------|

          x2  (Gtr.1)		  T
E---------------11----------11h14h17p14p11----------11-/13----------13h18p13-------|
B-14-16-18---|----13------13--------------13------13------14------14--------14-----|
G-----------*|------14--14------------------14--14----------15--15------------15--1|
D-----------*|--------16----------------------16--------------15----------------15-|
A------------|---------------------------------------------------------------------|
E----------------------------------------------------------------------------------|

							        T
E---13--13----------13h18p13----------13-13p11----------11h13h17p13p11----------11|
B-14------14------14--------14------14---------13------13--------------13------13--|
G5----------15--15------------15--15-------------14--14------------------14--14----|
D-------------15----------------15-----------------16----------------------16------|
A----------------------------------------------------------------------------------|
E----------------------------------------------------------------------------------|

			     (Gtr.2)
Eh13-15-16-17~-16-14-13------13h17p13h17p13h17p13h17p13h17p13h17p13-13h18p13h18p13|
B--------------------------|-------------------------------------------------------|
G--------------------------|-------------------------------------------------------|
D--------------------------|-------------------------------------------------------|
A--------------------------|-------------------------------------------------------|
E----------------------------------------------------------------------------------|

Eh18p13h18p13h18p13h18p13-13h18p13h18p13h18p13h18p13h18p13h18p13-13h17p13h17p13h17p|
B----------------------------------------------------------------------------------|
G----------------------------------------------------------------------------------|
D----------------------------------------------------------------------------------|
A----------------------------------------------------------------------------------|
E----------------------------------------------------------------------------------|

			      end Guitar Solo
E13h17p13h17p13h17p13--------------------------------------------------------------|
B---------------------------------------------|------------------------------------|
G---------------------------------------------|------------------------------------|
D---------------------A.H..................|--|------------------------------------|
A---------------------8~-6~-4~-3~---4-3------|------4-4---------4-4-----4-4-------|
E----------------------------------------6------6-6-----6-64-4-----4-4-----4-4-/6|
						pm.................................

E----------------------------------------------------------------------------------|
B----------------------------------------------------------------------------------|
G----------------------------------------------------------------------------------|
D----------------------------------------------------------------------------------|
A---4-4-/6-6-3-3----------------------4-4---------4-4-----4-4----------4-4-/6-6-3|
E-6---------------6-6-6-6-6-6-6-6--6-6-----6-64-4-----4-4-----4-4-/6-6------------|
 ..................................................................................

		       w/Fill 3
E----------------------------------------------------------------------------------|
B----------------------------------------------------------------------------------|
G----------------------------------------------------------------------------------|
D----------------------------------------------------6------6----------------------|
A-3----------------------4------4------4------4------4-4-4--4-4-4--6------6-----4-|
E---6-6-6-6-6-6-6-6----2-2-2--2-2-2--2-2-2--2-2-2----------------4-4-4--4-4-4-2-|
 ...................|     pm..|  pm..|  pm..|  pm..|  pm..|  pm..|  pm..|  pm..|

E----------------------------------------------------------------------------------|
B-------------------------------------------------------|------------|-------------|
G-------------------------------------------------------|---Chorus---|-------------|
D----------------------------6------6-------------------|-----(1)----|--8---6---4--|
A------4------4------4-------4-4-4--4-4-4--6------6~~---|------------|--6---4---2--|
E-2-2--2-2-2--2-2-2--2-2-2-----------------4-4-4--4~~------------------------------|
 pm..|  pm..|  pm..|  pm..|   pm..|  pm..|  pm..|

E---------------------------------------------------------------------||
B---------------------------------------------------------------------||
G---------------------------------------------------------------------|| end
D-0---------0--------0------------------------------------------------||
A-1-6--6----1-6--6---1-6------6----6----6----6----------4-6-7--6-----||
E---3--4------3--4-----3--4-4-4--4-4--4-4--4-4--4-4-6-7--------4-----||
			 pm..|  pm   pm   pm   pm

--------------------------------------------------------------------------------------

  Fill 1		     Fill 2A				 Fill 2B
E---------------------------------------------13b(14)--r13~-----------------------|
B--11h13h14-p13p11---------|--11h13p14-p13p11------------------|--11h13h14-p13p11-/|
G------------------13~----|-----------------------------------|-------------------|
D--------------------------|-----------------------------------|-------------------|
A--------------------------|-----------------------------------|-------------------|
E----------------------------------------------------------------------------------|

	     Fill 3 (2 Gtrs.)
E---------------------------------------------------||
B-13~-----|--------11----9-----9----11---9----9----||
G----------|-----10-11----10----8----11---10---8----|| end
D----------|--11------------------------------------||
A----------|----------------------------------------||
E---------------------------------------------------||

  Rhythm Guitars During Guitar Solos 1&2
E----------------------------------------------------------------------------------|
B----------------------------------------------------------------------------------|
G----------------------------------------------------------------------------------|
D--------------------------------------11-10---------------------------------------|
A---------------------------------------9--8--------------------------------------|
E--6-6-6-6-6-6-6-6-6-6-6-6-6-6-6-6-6-6--------6-6-6-6-6-6-6-6-6-6-6-6-6-6-6-6-6-6-|
  pm..................................|      pm..................................|

E---------------------------------------------------------------------------------||
B---------------------------------------------------------------------------------||
G---------------------------------------------------------------------------------|| end
D---------------------------------------11-10-------------------------------------||
A6~--------------------------------------9--8------------------------------6--8--||
E4~-6-6-6-6-6-6-6-6-6-6-6-6-6-6-6-6-6-6--------6-6-6-6-6-6-6-6-6-6-6-6-6-6-4--6--||
   pm..................................|      pm..........................|

  Rhythm Guitar During Guitar Solo 3
E----------------------------------------------------------------------------------|
B----------------------------------------------------------------------------------|
G*---------------------------------------------------------------------------------|
D*--------------------------4------------------------------------------------------|
A---4-8-6-8-4-8-6-8-4-8-6-8---8-6-4--------------------------4--------/6-9-8-9-6-9-|
E------------------------------------4-8-6-8-4-8-6-8-4-8-6-8---8-6-4---------------|
   pm..............................................................................

						      x2
E----------------------------------------------------------------------------------|
B--------------------------------------------------------|-------------------------|
G-------------------------------------------------------*|-------------------------|
D-------------6-----------------------------------------*|-------------------------|
A-8-9-6-9-8-9---9-8-6--------------------------8-6-------|--7----8----8----7---|
E----------------------6-9-8-9-6-9-8-9-6-9-8-9-----9-8------5----6----6----5---|
 ......................................................|
0
E------------------------||
B------------------------||
G------------------------|| end
D------------------------||
A-/8--6--4--3~---4-3-----||
E--------------------6--||

--------------------------------------------------------------------------------------

=======================
=TABLATURE EXPLANATION=
=======================

A.H. = Artificial Harmonic

pm..| = Palm mute

h = hammer on

p = pull off

/ = slide up

 = slide down

~ = Vibrato

b() = Bend

x = Pick Slide

--------
--------
---12--- = Tremolo pick
----/---
----/---
----/---

|     |
|     |
|*   *| = repeat from * to *
|*   *| 
|     |


Текст, аккорды и табулатура для песни "Where Heroes Lie", исполняет "Luca Turilli".
Используемые в песне аккорды можно найти в разделе Как брать аккорды. Аккорды для шестиструнной гитары. Другие песни можно найти на нашем сайте, воспользовавшись алфавитным указателем вверху страницы.


 
Ошибка в тексте? Выделите ошибку и нажмите Ctrl+Enter