**********************************************
* LUCA TURILLI - THE ANCIENT FOREST OF ELVES *
**********************************************
  Music and Words By: Luca Turilli

Transcribed By: Niclas Buss

email: [email protected]

Please mail me if you can find mistakes!

Normal Tuning

  Intro
E----------------------------------------------------------------------------------|
B----------------------------------------------------------------------------------|
G----------------------------------------------------------------------------------|
D--5-----3--8-----5--3--5p3------5-----3--8-----3--5------5-----------------3------|
A--3--3--1--6--6--3--1------6-5--3--3--1--6--6--1--3--/---3-3-3-3--3--------1-1-1-1|
E-----1--------4--------------------1--------4---------------------1-1-1-1---------|
							   pm....|  pm....|  pm....|

E----------------------------------------------------------------------------------|
B----------------------------------------------------------------------------------|
G----------------------------------------------------------------------------------|
D--8-----------------5--------3--------5p3-------5-----------------3--------8------|
A--6-6-6-6--6--------3-3-3-3--1-1-1-1------6-5---3-3-3-3--3--------1-1-1-1--6-6-6-6|
E-----------4-4-4-4---------------------------------------1-1-1-1------------------|
    pm....|  pm....|  pm....|  pm....|		  pm....|  pm....|  pm....|  pm....|

				    Riff 1
E----------------------------------------------------------------------------------|
B---------------------------------|------------------------------------------------|
G---------------------------------|------------------------------------------------|
D----------3-----5----------------|-------------------3-3-5-6----------------------|
A----6---1-1---3-3-3-6p5p3--------|--3-3-5-6------1-3---------1-1-3-5--3-3-5-6-----|
E--4-4---------------------6p5p3-------------4-4-------------------------------4-4-|
  pm    pm    pm  pm		    pm.............................................

E----------------------------------------------------------------------------------|
B----------------------------------------------------------------------------------|
G----------------------------------------------------------------------------------|
D------3-5-6-7--3--3-------------------3-3-5-6--------------------------3-5-6-7--3|
A-1-3-----------1--1---3-3-5-6-----1-3---------1-1-3-5--3-3-5-6-----1-3----------1|
E-------------------------------4-4------------------------------4-4---------------|
 .....|		       pm...............................................|

        Verse 1
E----------------------------------------------------------------------------------|
B-----|----------------------------------------------------------------------------|
G-----|--5-------5-----------5-----5-------5-----------5---------------------------|
D-/4--|--5-------5-----------5-----5-------5-----------5---------------------------|
A-/2--|--3-3-3-3-3-3-3-3-3-3-3-3-3-3-3-3-3-3-3-3-3-3-3-3-3-3-----------------------|
E------------------------------------------------------------4-4-4-4-4-4-4-4-4-4-4|
	  pm....| pm........| pm..| pm....| pm........| pm.........................

E----------------------------------------------------------------------------------|
B----------------------------------------------------------------------------------|
G-----------------------5-------5-----------5-----5-------5-----------5------------|
D--------------5--5-----5-------5-----------5-----5-------5-----------5------------|
A--------------3--3-5---3-3-3-3-3-3-3-3-3-3-3-3-3-3-3-3-3-3-3-3-3-3-3-3-3-3--------|
E-4-4-4-4-4-4-------3-------------------------------------------------------4-4-4-|
 ............|		 pm....| pm........| pm..| pm....| pm........| pm..........

					      Bridge
E----------------------------------------------------------------------------------|
B-------------------------------------------|--------------------------------------|
G-------------------------------------------|------3-5---7-5---5-3---53-----------|
D---------------------------5---5-----------|--3-------3-----3-----3-----3--8-----8|
A---------------------------3---3-5---------|--1----------------------------6-6-6-6|
E-4-4-4-4-4-4-4-4-4-4-4-4-4-------3-3-3-4-5----------------------------------------|
 ..........................|			      pm    pm    pm    pm   pm..|

E----------------------------------------------------------------------------------|
B----------------------------------------------------------------------------------|
G--8-------------------------------------------------------------------------------|
D--6--8--------65-----------------------------------------------------------------|
A-----6-6-6-6------8-6-5-------6-----6-6-6-----6---------------5-----------------5-|
E--------------------------4-4-4-4-4-4-4-4-4-4-4-4-4-6-4-3-3-3-3-3-3-3-3-3-1-3-3-3-|
       pm....|		  pm..| pm..|     pm..| pm............| pm..............|

	     Chorus
E----------------------------------------------------------------------------------|
B----------|-----------------------------------------------------------------------|
G----------|-----5-----------------------------5------------------------------5----|
D----------|--5--3--3--8-----5--3--5p3------5--3--3--8-----3--5-5----5--------3-3-3|
A-5-5-6-8--|--3-----1--6--6--3--1------65--3-----1--6--6--1--3-3----3-3-3-3-------|
E-3-3-4-6-----------------4-----------------------------4--------------------------|
								      pm....|  pm..

E----------------------------------------------------------------------------------|
B----------------------------------------------------------------------------------|
G--------------------------------------------------------------------5-------------|
D-3--3--------8-----------------5--------3--------5p3-------5--------3-3-3-3--3----|
A----1-1-1-1--6-6-6-6--6--------3-3-3-3--1-1-1-1------65---3-3-3-3-----------1-1-1|
E----------------------4-4-4-4-----------------------------------------------------|
 ..|  pm....|  pm....|  pm....|  pm....|  pm....|            pm....|  pm....|  pm..

E----------------------------------------------------------------------------------|
B-------------------------------------------|----------|-----------|----------|----|
G-------------------------------------------|--Riff-1--|--Verse-2--|--Bridge--|--Ch|
D----8----------------3----5----------------|----------|-----------|----------|----|
A-1--6-6-6-6----6---1-1--3-3-3-6p5p3--------|----------|-----------|----------|----|
E-------------4-4--------------------6p5p3-----------------------------------------|
 ..|  pm.......|   pm   pm  pm					

E----------------------------------------------------------------------------------|
B------|---------------------------------------------------------------------------|
Gorus--|--5---5---5-----------5---5---3--1--0----5---5---5-----------5---5--5--3--1|
D------|--5---5---5--6-6-5----5---5---3--1-------5---5---5--6-6-5----5---5--5--3--1|
A------|---------------------------------------------------------------------------|
E----------------------------------------------------------------------------------|

       Guitar Solo (2 Gtrs.)
E-------11-10-8h10p8---------------------------------------------------------------|
B----|--13-11-9h11p9-11h13p11-9------------9--13---11--9------11---/15-13-11h13p11-|
G-0--|---------------12h13p12-10-12p10h12-10--13---12-10-7-10-10---/15-13-12h13p12-|
D----|---------------------------13p12h13----------------8-12----------------------|
A----|-----------------------------------------------------------------------------|
E----------------------------------------------------------------------------------|

E----------------------------------------------------------------------------------|
B-9h11p9---------/11---9-8----16-18-20-18-16-18-16-15------------------------------|
G10h12p10-12-10--/12--10-8----------------------------17-15-13----------------13-15|
D---------13-12------------------------------------------------17-15-13-15-17------|
A----------------------------------------------------------------------------------|
E----------------------------------------------------------------------------------|

E----------------------------------------------------------------------------------|
B----------------------------------------------------------------------------------|
G-13-15-13-------------------------------------------------------------------------|
D----------17-15-13----------------------------------------------------13-17-15-13-|
A-------------------17-15-13----------------13-15-13----------13-15-17-------------|
E----------------------------16-15-13-15-16----------16-15-16----------------------|

E----------------------------------------------------------------------------------|
B-------------------------------------------------|--------------------------------|
G-------------17-15-14-17-15-14-17-13-17-15~~----|*-------------------------------|
D----13-17-15-------------------------------------|*--7-7--7---7---7-7--7---7------|
A-17----------------------------------------------|---5-5--5---5---5-5--5---5---5-5|
E-------------------------------------------------------------------------------3-3|

		     x3
E----------------------------------------------------------------------------------|
B-----------------------|----------------------------------------------------------|
G----------------------*|----------------------------------------------------------|
D----------------------*|--7-7--7---7---7-7--7---7---------------------------------|
A--5---5---5-5--5---5---|--5-5--5---5---5-5--5---5---5-5--5---5---5-5-5-5-5-5-5~~--|
E--3---3---3-3--3---3--------------------------------3-3--3---3---3-3-3-3-3-3-3~~--|

E----------------------------------------------------------------------------------|
B----------------------------------------------------------------------------------|
G*---------------------------------------------------------------------------------|
D*--5------------------------------------------------------------------------------|
A---3-3-3-3-3-3-3-3-3-3-3-3-3-3-3-1-1-1-1-1-1-1-1-1-1-1-1-------------------------|
E----------------------------------------------------------1-1-1-1-1-1-1-1-1-1-1-1/|
     pm............................................................................

		      x2
E----------------------------------------------------------------------------------|
B------------------------|---------------------------------------------------------|
G-----------------------*|*--------------------------------------------------------|
D-----------------------*|*--5-------------------------3--------------------------|
A------------------------|---3-3-3-3-3-3-3-3-3-3-3-3-3-1-1-1-1-1-1-1-1-1-1-1-1-1-1|
E-3-3-3-3-3-3-3-3-3-3-3------------------------------------------------------------|
 ......................|      pm......................|  pm........................|

						     x2   Clean Sound
E----------------------------------------------------------------------------------|
B-------------------------------------------------------|--------------------------|
G------------------------------------------------------*|--------------------------|
D------------------------------------------------------*|--------------------------|
A-3-------------------------/5--------------------------|--6--6-6-6-6--6-6-6-6--4-|
E-1-1-1-1-1-1-1-1-1-1-1-1-1-/3-3-3-3-3-3-3-3-3-3-3-3-3-----------------------------|
   pm......................|  pm......................|   pm.......................

E----------------------------------------------------------------------------------|
B----------------------------------------------------------------------------------|
G----------------------------------------------------------------------------------|
D----------------------------------------------------------------------------------|
A--4-4-4-4--4-4-4-4--------------------------------------------/6--6-6-6-6--6-6-6-6|
E--------------------4--4-4-4-4--4-4-4-4-2--2-2-2-2--2-2-2-2----------------------|
 ..................................................................................

E----------------------------------------------------------------------------------|
B----------------------------------------------------------------------------------|
G----------------------------------------------------------------------------------|
D----------------------------------------------------------------------------------|
A-4--4-4-4-4--4-4-4-4---------------------------------------------6--6-6-6-6--6-6-|
E-----------------------4--4-4-4-4--4-4-4-4-/7--7-7-7-7--7-7-7-7-------------------|
 ..................................................................................

E----------------------------------------------------------------------------------|
B----------------------------------------------------------------------------------|
G----------------------------------------------------------------------------------|
D----------------------------------------------------------------------------------|
A-6-6-4--4-4-4-4--4-4-4-4--------------------------------------------/6--6-6-6-6--|
E---------------------------4--4-4-4-4--4-4-4-4-2--2-2-2-2--2-2-2-2---------------|
 ..................................................................................

									     Dist.
E----------------------------------------------------------------------------------|
B----------------------------------------------------------------------------------|
G----------------------------------------------------------------------------------|
D----------------------------------------------------------------------------------|
A6-6-6-6-4--4-4-4-4--4-4-4-4--------------------------------------------------5---|
E------------------------------4--4-4-4-4--4-4-4-4-/7--7-7-7-7-7-7-7-7-7-7-----3---|
 ............................................................................|

  Chorus
E----------------------------------------------------------------------------------|
B----------------------------------------------------------------------------------|
G-----5-----------------------------5--------------------------------5-------------|
D--5--3--3--8-----5--3--53------5--3--3--8-----3--5-5--5---5--------3-3-3-3--3----|
A--3-----1--6--6--3--1------6p5--3-----1--6--6--1--3-3--3---3-3-3-3-----------1-1-1|
E--------------4-----------------------------4-------------------------------------|
							     pm....|  pm....|  pm..

E----------------------------------------------------------------------------------|
B----------------------------------------------------------------------------------|
G----------------------------------------------------------5-----------------------|
D---/8-----------------5-------3--------53------5--------3-3-3-3--3-------/8-----|
A-1-/6-6-6-6--6--------3-3-3-3-1-1-1-1------6p5--3-3-3-3-----------1-1-1-1-/6-6-6-|
E-------------4-4-4-4--------------------------------------------------------------|
 .|   pm....|  pm....|  pm....|  pm....|           pm....|  pm....|  pm....|  pm...

E----------------------------------------------------------------------------------|
B----------------------------------------------------------------------------------|
G------------------------------------------------------------5---------------------|
D---------5h6-------7h8---------9h10---------------/5--------3-3-3-3--3-------/8---|
A-6--6-6-------8-8-------10-10---------------------/3-3-3-3-----------1-1-1-1-/6-6-|
E----4-4-------6-6-------8--8--------/8-10-11-10-----------------------------------|
 ..|						      pm...|  pm....|  pm....|  pm.

E----------------------------------------------------------------------------------|
B----------------------------------------------------------------------------------|
G---------------------------------------------------5------------------------------|
D---------------5-------3--------53------5--------3-3-3-3--3--------/8-----------|
A-6-6--6--------3-3-3-3-1-1-1-1------6p5--3-3-3-3-----------1-1-1-1--/6-6-6-6--6--|
E------4-4-4-4------------------------------------------------------------------4--|
 ....|  pm....|  pm....|  pm....|	     pm....|  pm....|  pm....|   pm....|

E----------------------------------------------------------------------||
B--------------------------------Gtr.2:-4-3----------------------------||
G---------------------5p3-----------3~--3-3-----5-3--------------------|| end
D--3--5--5------3--5------5p3-------3---------------5-3----------------||
A--1--3--3---6--1--3------------6---1---------3---------6-3------------||
E------------4------------------4---------------------------6-8~~-----||

--------------------------------------------------------------------------------------

  Rhythm Guitar During Guitar Solo
E----------------------------------------------------------------------------------|
B----------------------------------------------------------------------------------|
G----------------------------------------------------------------------------------|
D----------------------------------------------------------------------------------|
A--3-3-3-3-3-3-3-3-3-3-3-3-3-3-3---------------------------------------------------|
E--------------------------------1-1-1-1-1-1-1-1-1-1-1-1-1-1-1-1-/6-6-6-6-6-6-6-6-|
  pm...............................................................................

E----------------------------------------------------------------------------------|
B----------------------------------------------------------------------------------|
G----------------------------------------------------------------------------------|
D----------------------------------------------------------------------------------|
A-----------------/6-6-6-6-6-6-6-6-6-6-6-6-6-6-6-6---------------------------------|
E-6-6-6-6-6-6-6-6-----------------------------------4-4-4-4-4-4-4-4-4-4-4-4-4-4-4-4|
 ..................................................................................

E-------------------------------------------------------------------------------||
B-------------------------------------------------------------------------------||
G-------------------------------------------------------------------------------|| end
D-------------------------------------------------------------------------------||
A-------------------------------------------------------------------------------||
E3-3-3-3-3-3-3-3-3-3-3-3-3-3-3-3--/6-6-6-6-6-6-6-6-6-6-6-6-6-6-6-6-6-6-6-6-6-6-||
 ..............................................................................|

--------------------------------------------------------------------------------------

=======================
=TABLATURE EXPLANATION=
=======================

pm..| = Palm mute

h = hammer on

p = pull off

/ = slide up

 = slide down

~ = Vibrato

|     |
|     |
|*   *| = repeat from * to *
|*   *| 
|     |


Текст, аккорды и табулатура для песни "The Ancient Forest Of Elves", исполняет "Luca Turilli".
Используемые в песне аккорды можно найти в разделе Как брать аккорды. Аккорды для шестиструнной гитары. Другие песни можно найти на нашем сайте, воспользовавшись алфавитным указателем вверху страницы.


 
Ошибка в тексте? Выделите ошибку и нажмите Ctrl+Enter