**************************************************************************
* LUCA TURILLI - LORD OF THE WINTER SNOW (From: King Of Nordic Twilight) *
**************************************************************************
 Music and Words By: Luca Turilli

Transcribed By: Niclas Buss
email: [email protected]

Please mail me if you can find mistakes!

-----------------------------------------

 Normal Tuning

E----------------------------------------------------------------------------------|
B------------------|---------------------------------------------------------------|
G--Keyboard-Intro--|---------------------------------------------------------------|
D-----(15-sec)-----|---------------------------------------------------------------|
A------------------|--2-----2----2--2---2---7----7-7---7-7---7-7---7-7---7-7--|
E---------------------0-----0----0--0---0------0-----0-----0-----0-----0-----0|
						   pm..............................

E----------------------------------------------------------------------------------|
B----------------------------------------------------------------------------------|
G----------------------------------------------------------------------------------|
D----------------------------------------------------------------------------------|
A-7-7---7-7---7-7---7-7---7-7---7-7---7-7---7-7---7-7---7-7---7-7---5-5---5-5---5-|
E-----0-----0-----0-----0-----0-----0-----0-----0-----0-----0-----3-----3-----3---|
 ..................................................................................

E----------------------------------------------------------------------------------|
B----------------------------------------------------------------------------------|
G----------------------------------------------------------------------------------|
D----------------------------------------------------------------------------------|
A-5---5-5---5-5---5-5---5-5---5-5---5-5---5-5---5-5---5-5---5-5---5-5---5-5---5-5-|
E---3-----3-----3-----3-----3-----3-----3-----3-----3-----3-----3-----3-----3------|
 .................................................................................|

							  x3
E----------------------------------------------------------------------------------|
B------------------------------------------------------------|---------------------|
G*----------------------------------------------------------*|---------------------|
D*----------------------------------------------------------*|---------------------|
A------------------------------------------------------------|---------------------|
E--3--3-3-3-3--3--3--3----3--3--3--3-3-3-3--3--3--3---3--3-----3--3-3-3-3--3--3--3|
     pm........................|   pm......................|      pm...............

					      Verse 1
E----------------------------------------------------------------------------------|
B-------------------------------------------|--------------------------------------|
G-------------------------------------------|*-------------------------------------|
D-------------------------------------------|*-------------------------------------|
A-------------------------------------------|--5-5---5---5---5---5---5---5---5---5|
E----3--3---3--3-3-3-3--3--3-3-3-3-3-3-3------3---3---3---3---3---3---3---3---3-3|
 ........|     pm............|			 pm..............................| 

E----------------------------------------------------------------------------------|
B----------------------------------------------------------------------------------|
G----------------------------------------------------------------------------------|
D---------------------------------5-5---5---5---5--/8-8---8--/10-10---10----------|
A-5---5---5---5---5---5---5---5--3---3---3---3----/6---6----/8-----8------5-5---|
E---3---3---3---3---3---3---3----------------------------------------------3---3-|
  pm............................|   pm............|   pm....|    pm......|    pm...

E----------------------------------------------------------------------------------|
B----------------------------------------------------------------------------------|
G----------------------------------------------------------------------------------|
D------------------------------------------------------------5-5---5---5---5--/8~-|
A-5---5---5---5---5---5----5-5---5---5---5---5---5---5---5--3---3---3---3----/6~-|
E---3---3---3---3---3---3--3---3---3---3---3---3---3---3----------------------/6~-|
 ........................|   pm............................|   pm............|

      x2   Chorus
E----------------------------------------------------------------------------------|
B--------|-------------------------------------------------------------------------|
G-------*|------------------------------------------------------------5---3--------|
D-/10~--*|---------------------------------8----------------------------------7p5--|
A-/8~----|---5----3---/8---8--6--5---------6---3---/8---5-3-1-0---3-3---3---3-----3|
E-/8~--------3----1---/6-----------8-6-5-------1---/6------------------------------|
								 pm..| pm  pm    pm

								       w/Fill 1
E----------------------------------------------------------------------------------|
B----------------------------------------------------------------------------------|
G---3------------------------------8--7--9---8-------------------------------------|
D-------7---5p3-------8-----5---7--8--8--10--8-------7~-------/5--7-8---5---5--5---|
A-3---3---3------/6-6---6-6---6----6--6--6---6---8-------3--------------3---3--3---|
E------------------------------------------------6-------1-------------------------|
 ..| pm  pm    pm...|  pm..| pm			
				                Riff 1			     x7
E----------------------------------------------------------------------------------|
B---------------------------------------------|---------------------------------|--|
G---------8-7---------------------------------|*-------------------------------*|--|
D-/8---8--8-8---------------------------------|*-------------------------------*|--|
A-/6---6--6-6--8--6--5--3----6-5-3----------|---------------------------------|--|
E-/6---6--------6--------1--1-------6-5-3-1------3--3-3-3-3--3--3--3----3--3-----3|
						    pm........................|

		  end Riff 1						   Guitar S
E----------------------------------------------------------------------------------|
B----------------------------|-----------------|------------|------------|---------|
G----------------------------|-----Verse-2-----|---Chorus---|---Riff-1---|--12-11-|
D----------------------------|--(Verse--Riff)--|------------|------------|---/---/-|
A----------------------------|---(Only-Once)---|------------|------------|---/---/-|
E-3-3-3-3--3--3-3-3-3-3-3-3--------------------------------------------------/---/-|
 pm............|

 olo
E----------------------------------------------------------------------------------|
B------------------------------------11-10~----------------------------------------|
G-/12-14-12-11-/12-14-1211-/12-14----------1211-/12-14-1211-/12-14-1211-12-14-|
D---/--/--/---/---/--/--/--/---/--/-----------/--/---/--/--/--/---/--/--/--/--/--/-|
A---/--/--/---/---/--/--/--/---/--/-----------/--/---/--/--/--/---/--/--/--/--/--/-|
E---/--/--/---/---/--/--/--/---/--/-----------/--/---/--/--/--/---/--/--/--/--/--/-|

E----------------------------------------------------------------------------------|
B-/11-10~-----------------------------------------13-15b(17)-15b(17)--r15-13-15--14|
G----------1412-/14-15-1412-/14-15-1412-/14-15----------------------------------|
D-----------/--/---/--/--/--/---/--/--/--/---/--/----------------------------------|
A-----------/--/---/--/--/--/---/--/--/--/---/--/----------------------------------|
E-----------/--/---/--/--/--/---/--/--/--/---/--/----------------------------------|

E----------------------------------------------------------------------------------|
B-11------------------------------------------------------------------------------|
G-------12---11--/15-14-12-11--/14--12---/15-14-12-10----/---/-----/--/--/--/----/|
D--------/----/----/--/--/--/----/----/-----/--/--/--/---13--12---/15-13-12-10--/13|
A--------/----/----/--/--/--/----/----/-----/--/--/--/----/---/-----/--/--/--/----/|
E--------/----/----/--/--/--/----/----/-----/--/--/--/----/---/-----/--/--/--/----/|

		      w/Fill 2
E----------------------------------------------------------------------------------|
B----------------------------------------------------------------------------------|
G---/--/--/------------/---------/-----/----/--/--/-/--/----/--------/----/----/--/|
D--12-10-12--10-12----13-12-10-/13-12-10--/13-12-108h10---12-10-8-/12-10-8--/12-10|
A---/--/--/------------/---------/-----/----/--/--/-/--/----/--------/----/----/--/|
E---/--/--/------------/---------/-----/----/--/--/-/--/----/--------/----/----/--/|

						     Harmony Solo 1 (2.Gtrs)
E--------------------------------------------------------------15--17-18-17-15-----|
B--------------------------------------------------|--15-13-15-15--16-18-16-15--16-|
G-/-/-/----/----/---/-/---/-/-/-/--/-/--/-/--------|----------------------------17-|
D-87h8--/10-8-7---/-/--/5-8-7-5--7/8--7p5---4~--|--17-15-17---------------------|
A-/-/-/----/----/--10-9---/-/-/-/--/-/--/-/--------|-------------------------------|
E-/-/-/----/----/---/-/---/-/-/-/--/-/--/-/----------------------------------------|

E--------------------------------------------15--17-18-17-15--------15-------------|
B-18-16-15-/16-15-13----------13---/15-13-15-15--16-18-16-15--16-18-16-18--16-15-16|
G-19-17-15-/17-15-14-15-14-15-14------------------------------17-19----19--17-15-17|
D--------------------17-16-17------17-15-17---------------------------------------|
A----------------------------------------------------------------------------------|
E----------------------------------------------------------------------------------|

E------------------------15--17-18-17-15-------------------------------------------|
B-15-13---------15-13-15-15--16-18-16-15--16-18-16-15-/16-15-13----------13-15-16-1|
G-15-14-15-14~----------------------------17-19-17-15-/17-15-14-15-14-15-14-15-17-1|
D-------17-16~--17-15-17----------------------------------------17-16-17-----------|
A----------------------------------------------------------------------------------|
E----------------------------------------------------------------------------------|

E-------------15--17-18-20-22~--15-18-20-22----22--b(23)-r22~~---------------------|
B3--/15-13-15-15--16-18-20-20~--15-18-20-20-20-19--b(20)-r19~~--|------------|-----|
G4------------------------------------------20------------------|---Chorus---|--Har|
D---17-15-17---------------------------------------------------|------------|-----|
A---------------------------------------------------------------|------------|-----|
E----------------------------------------------------------------------------------|

E--------------------------||
B-----------|--------------||
Gmony-Solo--|--------------|| end
D---1A------|--5~~--------||
A-----------|--5~~--------||
E--------------3~~--------||

--------------------------------------------------------------------------------------

  Fill 1			  Fill 2
E----------------18---17--15------/15--15--15---/13--13--13----11-10-8-----------|
B-------------------------------|----/---/---/-----/---/---/-----/-----/--1110--8|
G-12--12-/14-14b(15)-r14--12---|----/---/---/-----/---/---/-----/-----/------/----|
D-------------------------------|----/---/---/-----/---/---/-----/-----/------/----|
A-------------------------------|---------------------------------------------/----|
E----------------------------------------------------------------------------------|

E-----------------------||
B7--8/11-10-8--7~~----||
G-/--/--/--/-/---/------|| end
D-/--/--/--/-/---/------||
A-/--/--/--/-/----------||
E-----------------------||

  Rhythm Guitar During Guitar Solo
E----------------------------------------------------------------------------------|
B----------------------------------------------------------------------------------|
G--5---5---5---5-5---/7---7---7---8-7---/7---7---7---8-7-----6------/-5---5---5---5|
D--5---5---5---5-5---/5---5---5---5-5---/7---7---7---7-7--------8---/-5---5---5---5|
A------------------------------------------------------------4---------------------|
E---------------------------------------------------------------6------------------|

E---------------------------------------------------------------3--3--3-----------|
B----------------------------------------------------8--8--8---3--3--3---7--7--7|
G-5---/7---7---7---8-7---/7---7---7---8-7----6--7----8--8--8---3--3--3---7--7--7|
D-5---/5---5---5---5-5---/7---7---7---7-7------------8--8--8---5--5--5---7--7--7|
A--------------------------------------------4-------6--6--6--------------5--5--5|
E-----------------------------------------------6----------------------------------|

E---------------------------||
B---------------------------||
G--------3---3--------------||
D------5---5---5---8--7~~---||
A----5-------------6--5~~---||
E--3------------------------||
  pm............|

  Rhythm Guitar During Harmony Solo 1
E----------------------------------------------------------------------------------|
B--------------------------------------------------------------7-8-7~--------------|
G------------------------8-------7----------8--------7-------7---------------------|
D------5-------5-------8---8---8---8-----10---10---8---8--------------------5------|
A----5---5---5---5--/6-------5----------------------------/5--------------5---5---5|
E--3-------6--------------------------8---------6----------------------3-------6--|
  pm....................................|       pm       pm	     pm............

E---------------------------------------6------------------------------------------|
B------------------------------8----------6------7-8-7~----------------------------|
G-----------8-------7------------8----7--------7-----------------------------------|
D-5-------8---8---8---8-----8-------8--------7-------------------------------------|
A---5--/6-------5---------6-----------------------------------------------/6-6-6-6-|
E---------------------------------------------------------3-3-3-3-3-3-3-3----------|
 ............................|     pm       pm           pm.........................

E----------------------------------------------------------------------------------|
B----------------------------------------------------------------------------------|
G----------------------------------------------------------------------------------|
D----------------------------------------------------------------------------------|
A-------------------/1-1-1-1-/5-5-5-5-5-5-5-5-------------------/6-6-6-6---------/3|
E-3-3-3-3-1-1-1-1----------------------------3-3-3-3-3-3-3-3-----------3-3-3-3---|
 ...................................................................................

E--------------------------------------||
B--------------------------------------||
G--------------------------------------|| end
D----------------------------7-7-7----||
A-3-3-3-1-1-1-1--/5-5-5-5-5-5-5-5----||
E--------------------------------------||
 ...........................|

  Rhythm Guitar During Harmony Solo 1A
E----------------------------------------------------------------------------------|
B----------------------------------------------------------------------------------|
G----------------------------------------------------------------------------------|
D----------------------------------------------------------------------------------|
A------------------/6-6-6-6-----------------/1-1-1-1-/5-5-5-5-5-5-5-5-5--5---------|
E--3-3-3-3-3-3-3-3----------3-3-3-31-1-1-1------------------------------3-3-3-3-3-|
 pm....................................................................|  pm........

E----------------------------------------------------------------------------------|
B----------------------------------------------------------------------------------|
G----------------------------------------------------------------------------------|
D---------------------------------------------------7-7-7-7-7---------------------8|
A---------/6-6-6-6---------3-3-3-31-1-1-1-/5-5-5-5-5-5-5-5-5---5-5---5---5---5--6|
E-3-3-3-3----------3-3-3-3--------------------------------------3---3---3---3-----|
 ..................................................|		    pm...........|

E-----------------------------------------------------------------------------------|
B-----------------------------------------------------------------------------------|
G-----------------------------------------------------------------------------------|
D8---8-----------------------3-3---3--/-7-7---7---7---7--------------------8-8--|
A--6----5-5---5--3-3---3--1---1----/-5---5---5---5----5-5---5---5---5--6---6|
E--------3---3----1---1----------------------------------3---3---3---3----------|
 pm....|   pm....|    pm....|   pm....|     pm............|   pm............|   pm..

E----------------------------------------------------------||
B----------------------------------------------------------||
G----------------------------------------------------------|| end
D-8-----------/-5-5---5--3-3---3--/-7-7-7-7-------------||
A---5-5---5--/-3---3----1---1----/-5-5-5-5-----5~~-----||
E---3---3-----------------------------------------3~~-----||
 ..|   pm....|     pm....|   pm....|

--------------------------------------------------------------------------------------

=======================
=TABLATURE EXPLANATION=
=======================

A.H. = Artificial Harmonic

pm..| = Palm mute

h = hammer on

p = pull off

/ = slide up

 = slide down

~ = Vibrato

b() = Bend

x = Pick Slide

--------
--------
---12--- = Tremolo pick
----/---
----/---
----/---

|     |
|     |
|*   *| = repeat from * to *
|*   *| 
|     |


Текст, аккорды и табулатура для песни "Lord Of The Winter Snow", исполняет "Luca Turilli".
Используемые в песне аккорды можно найти в разделе Как брать аккорды. Аккорды для шестиструнной гитары. Другие песни можно найти на нашем сайте, воспользовавшись алфавитным указателем вверху страницы.


 
Ошибка в тексте? Выделите ошибку и нажмите Ctrl+Enter