Вступление:
    F#m               Hm6             C#                F#m
E |---------4---2---|-4-----2---16-14-|-----1---5---4---|-4-----2---16-14-|
H ------|-----3-----------|---2---2---0-0-2-------|
G |---2---2---2---2-|---4---4---------------|---2-------------|
D |-4---------------|-4---------------|-3---------------|-4-----4---------|
A ------------------------|
E ------------------------|

    F#m               Hm6             C#                F#m
E |---------4---2---|-4-----2---16-14-|-----1---5---4---|-4-----2---16-14-|
H |---2-2-0-0-------|-----3-----------|---2-2-0-0-----2-------|
G |---2---2---2-2-1-|---4-------------2-2-1-|---2-1-----------|
D |-4---------------|-6-----4---------|-3---------------|-6-----4---------|
A ------------------------|
E ------------------------|

F#m       Hm              E
 Война-и-на-и-най-на-и-на-а
          A               F#m
 Война-и-на-и-най-на-и-на-а
          Hm              E
 Война-и-на-и-най-на-и-на-а
          C#
 Война-и-на-и-на-и-на-и-на

F#m
 Серыми тучами небо затянуто
Hm
 Нервы гитарной струною оттянуты
C#
 Дождь барабанит с утра и до вечера
F#m
 Время застывшее кажется вечностью

Нас раскидали по всем направлениям
Танки пехота огонь артиллерия
Нас убивают, но мы выживаем
И снова в атаку себя мы бросаем 

Припев:
F#m        Hm                      E
 Давай за жизнь, давай брат до конца
           A                      F#m 
 Давай за тех, кто с нами был тогда
           Hm                     E
 Давай за жизнь давай брат до конца
          C#                      
 Помянем тех, кто с нами был тогда

Небо над нами свинцовыми тучами
Стелится низко туманами рваными
Хочется верить, что все уже кончилось
Только бы выжил товарищ раненый
Ты потерпи, браток, не умирай пока
Будешь ты жить еще долго и счастливо
Будем на свадьбе твоей мы отплясывать
Будешь ты в небо детишек подбрасывать

Давай за жизнь, держись, брат, до конца
Давай за тех, кто дома ждет тебя
Давай за жизнь, будь проклята война
Давай за тех, кто дома ждет (тебя)

Давай за них, давай за нас
И за Сибирь, и за Кавказ
За свет далеких городов
И за друзей, и за любовь
Давай за вас, давай за нас
И за десант, и за спецназ
За боевые ордена
Давай поднимем, старина

В старом альбоме нашел фотографии
Деда, он был командир красной армии
«Сыну на память, Берлин 45-го»
Века ушедшего воспоминания
Запах травы на рассвете не скошенной
Стоны земли от бомбежек распаханной
Пара солдатских ботинок истоптанных
Войнами новыми, войнами старыми

Gm         Cm     
 Давай за жизнь...
F          B    
 Давай за тех...
Gm         Cm       
 Давай за жизнь...
F         D
 Давай помянем тех, кто с нами был...


Текст, аккорды и табулатура для песни "Давай за", исполняет "Любэ".
Используемые в песне аккорды можно найти в разделе Как брать аккорды. Аккорды для шестиструнной гитары. Другие песни можно найти на нашем сайте, воспользовавшись алфавитным указателем вверху страницы.


Слушать онлайн Давай за...


ЛюбэДавай за... на Яндекс.Музыке


 
Ошибка в тексте? Выделите ошибку и нажмите Ctrl+Enter