Title: The Fake Sound Of Progress
Tuning: Drop C
Tabbed by: Lewis Mitchell ([email protected])

Guitar 1 (harmonics)
                   
D|----------12-------------------------------12-------------------|
A|--7---------------------------------------------------12--------| 
F|----------------------------------------------------------------|
C|----------------------------------------------------------------|
G|----------------------------------------------------------------|
C|----------------------------------------------------------------|

Guitar 2 (clean)

D|----------------------0---2-------0---2-------0---2-----0---2---|
A|----------------------------------------------------------------|
F|----------------------------------------------------------------|
C|----------------------------------------------------------------|
G|----------------------------------------------------------------|
C|------------------4------------6-----------0-----------2--------|

Guitar 1 cont... (harmonics)

D|----------------------------12-------------------|
A|---------------------------------------12--------| 
F|-------------------------------------------------|
C|-------------------------------------------------|
G|-------------------------------------------------|
C|-------------------------------------------------|

Guitar 2 cont... (clean)

D|--------0---2------0---2-------0---2-----0---2---|
A|-------------------------------------------------|
F|-------------------------------------------------|
C|-------------------------------------------------|
G|-------------------------------------------------|
C|----4-----------6-----------0-----------2--------|

Guitar 1 cont... (harmonics)

D|---------------------------------------12--------|
A|----------------------------7--------------------| 
F|-------------------------------------------------|
C|-------------------------------------------------|
G|-------------------------------------------------|
C|-------------------------------------------------|

Guitar 2 cont... (clean)

D|--------0---2------0---2-------0---2-----0---2---|
A|-------------------------------------------------|
F|-------------------------------------------------|
C|-------------------------------------------------|
G|-------------------------------------------------|
C|----4-----------6-----------0-----------2--------|

Guitar 1 cont... (harmonics)

D|----------------------------12-------------------|
A|---------------------------------------12--------| 
F|-------------------------------------------------|
C|-------------------------------------------------|
G|-------------------------------------------------|
C|-------------------------------------------------|

Guitar 2 cont... (clean)

D|--------0---2------0---2-------0---2-----0---2---|
A|-------------------------------------------------|
F|-------------------------------------------------|
C|-------------------------------------------------|
G|-------------------------------------------------|
C|----4-----------6-----------0-----------2--------|

Guitar 1 cont... (distorted)

D|-----------------------------------------------------------------------|
A|----11-14-----------11--h-1-4--/--16---14-----11--11-11-14-------------| 
F|-----------------------------------------------------------------------|
C|-----------------------------------------------------------------------|
G|-----------------------------------------------------------------------|
C|-----------------------------------------------------------------------|

Guitar 2 cont... (clean)

D|--------0---2------0---2-------0---2-----0---2------0---2------0---2-------0---2-----0---2--|
A|--------------------------------------------------------------------------------------------|
F|--------------------------------------------------------------------------------------------|
C|--------------------------------------------------------------------------------------------|
G|--------------------------------------------------------------------------------------------|
C|----4-----------6-----------0-----------2--------4----------6-----------0-----------2-------|

Guitar 1 (distortion)

D|-------------------------------------------------|
A|-------------------------------------------------|
F|-------------------------------------------------|
C|----4-----------6-----------0-----------2--------|
G|----4-----------6-----------0-----------2--------|
C|----4-----------6-----------0-----------2--------|

Guitar 2 cont... (clean)

D|--------0---2------0---2-------0---2-----0---2---|
A|-------------------------------------------------|
F|-------------------------------------------------|
C|-------------------------------------------------|
G|-------------------------------------------------|
C|----4-----------6-----------0-----------2--------|

Guitar 1 (distortion)

D|-------------------------------------------------|
A|-------------------------------------------------|
F|-------------------------------------------------|
C|----4-----------6-----------0-----------2--------|
G|----4-----------6-----------0-----------2-222222-|
C|----4-----------6-----------0-----------2-222222-|
                                         pm ......
Guitar 2 cont... (clean)

D|--------0---2------0---2-------0---2-----0---2---|
A|-------------------------------------------------|
F|-------------------------------------------------|
C|-------------------------------------------------|
G|-------------------------------------------------|
C|----4-----------6-----------0-----------2--------|

Guitar 1 (distortion)

D|-------------------------------------------------|
A|-------------------------------------------------|
F|-------------------------------------------------|
C|----4-----------6-----------0-----------2--------|
G|----4-----------6-----------0-----------2--------|
C|----4-----------6-----------0-----------2--------|
                                         
Guitar 2 cont... (clean)

D|--------0---2------0---2-------0---2-----0---2---|
A|-------------------------------------------------|
F|-------------------------------------------------|
C|-------------------------------------------------|
G|-------------------------------------------------|
C|----4-----------6-----------0-----------2--------|

Guitar 1 (distortion)

D|---------------------------------------------------------------------|
A|---------------------------------------------------------------------|
F|---------------------------------------------------------------------|
C|----4-----------6-----------0-----------2-------------4--------|
G|----4-----------6-----------0-----------2-2-2-2-------4--------|
C|----4-----------6-----------0-----------2-2-2-2-------4--------|
                                         pm . . .      hold
Guitar 2 cont... (clean)

D|--------0---2------0---2-------0---2------0------|
A|-------------------------------------------------|
F|-------------------------------------------------|
C|-------------------------------------------------|
G|-------------------------------------------------|
C|----4-----------6-----------0-----------2--------|

Guitar 1

D|------------------------------------------------------------------------12--12----7--7|
A|--7---7-----7---7-----9---9-----9---9-----10--10----10--10---12--12-------------------|
F|--9---9-----9---9-----9---9-----9---9-----9---9-----9---9-----9---9-------------------|
C|--------------------------------------------------------------------------------------|
G|--------------------------------------------------------------------------------------|
C|--------------------------------------------------------------------------------------|

Guitar 1

D|------------------------------------------------------------------------12-----|
A|--7---7-----7---7-----9---9-----9---9-----10--10----10--10----7---7---------------|
F|--9---9-----9---9-----9---9-----9---9-----9---9-----9---9-----9---9---------------|
C|----------------------------------------------------------------------------------|
G|----------------------------------------------------------------------------------|
C|----------------------------------------------------------------------------------|

Guitar 2

D|---------9-----------9-----------9--------------9----|
A|------7-----7-----7-----7-----7-----7-----7--------7-|
F|---9-----------9-----------9-----------9-------------|
C|-----------------------------------------------------|
G|-----------------------------------------------------|
C|-----------------------------------------------------|

Guitar 2

D|---------9-----------9-----------9--------------9----|
A|------7-----7-----7-----7-----7-----7-----7--------7-|
F|---9-----------9-----------9-----------9-------------|
C|-----------------------------------------------------|
G|-----------------------------------------------------|
C|-----------------------------------------------------|

Guitar 2

D|---------9-----------9-----------9--------------9----|
A|------7-----7-----7-----7-----7-----7-----7--------7-|
F|---9-----------9-----------9-----------9-------------|
C|-----------------------------------------------------|
G|-----------------------------------------------------|
C|-----------------------------------------------------|

Guitar 1

D|-----------------------------------------------------|
A|-----------------------------------------------------|
F|-----------------------------------------------------|
C|-----------------------------------------------------|
G|-------------------------------------2-2-2-2-2-2-2-2-|
C|-------------------------------------2-2-2-2-2-2-2-2-|
                                   pm  . . . . . . . .
Guitar 2

D|---------9-----------9-----------9--------------9----|
A|------7-----7-----7-----7-----7-----7-----7--------7-|
F|---9-----------9-----------9-----------9-------------|
C|-----------------------------------------------------|
G|-----------------------------------------------------|
C|-----------------------------------------------------|

Guitar 1 (distortion)

D|-------------------------------------------------|
A|-------------------------------------------------|
F|-------------------------------------------------|
C|----4-----------6-----------0-----------2--------|
G|----4-----------6-----------0-----------2--------|
C|----4-----------6-----------0-----------2--------|

Guitar 2 cont... (clean)

D|--------0---2------0---2-------0---2-----0---2---|
A|-------------------------------------------------|
F|-------------------------------------------------|
C|-------------------------------------------------|
G|-------------------------------------------------|
C|----4-----------6-----------0-----------2--------|

Guitar 1 (distortion)

D|-------------------------------------------------|
A|-------------------------------------------------|
F|-------------------------------------------------|
C|----4-----------6-----------0-----------2--------|
G|----4-----------6-----------0-----------2-222222-|
C|----4-----------6-----------0-----------2-222222-|
                                         pm ......
Guitar 2 cont... (clean)

D|--------0---2------0---2-------0---2-----0---2---|
A|-------------------------------------------------|
F|-------------------------------------------------|
C|-------------------------------------------------|
G|-------------------------------------------------|
C|----4-----------6-----------0-----------2--------|

Guitar 1 (distortion)

D|-------------------------------------------------|
A|-------------------------------------------------|
F|-------------------------------------------------|
C|----4-----------6-----------0-----------2--------|
G|----4-----------6-----------0-----------2--------|
C|----4-----------6-----------0-----------2--------|
                                         
Guitar 2 cont... (clean)

D|--------0---2------0---2-------0---2-----0---2---|
A|-------------------------------------------------|
F|-------------------------------------------------|
C|-------------------------------------------------|
G|-------------------------------------------------|
C|----4-----------6-----------0-----------2--------|

Guitar 1 (distortion)

D|---------------------------------------------------------------------|
A|---------------------------------------------------------------------|
F|---------------------------------------------------------------------|
C|----4-----------6-----------0-----------2-------------4--------|
G|----4-----------6-----------0-----------2-2-2-2-------4--------|
C|----4-----------6-----------0-----------2-2-2-2-------4--------|
                                         pm . . .      hold
Guitar 2 cont... (clean)

D|--------0---2------0---2-------0---2------0------|
A|-------------------------------------------------|
F|-------------------------------------------------|
C|-------------------------------------------------|
G|-------------------------------------------------|
C|----4-----------6-----------0-----------2--------|

Guitar 1

D|------------------------------------------------------------------------12--12----7--7|
A|--7---7-----7---7-----9---9-----9---9-----10--10----10--10---12--12-------------------|
F|--9---9-----9---9-----9---9-----9---9-----9---9-----9---9-----9---9-------------------|
C|--------------------------------------------------------------------------------------|
G|--------------------------------------------------------------------------------------|
C|--------------------------------------------------------------------------------------|

Guitar 1

D|------------------------------------------------------------------------12-----|
A|--7---7-----7---7-----9---9-----9---9-----10--10----10--10----7---7---------------|
F|--9---9-----9---9-----9---9-----9---9-----9---9-----9---9-----9---9---------------|
C|----------------------------------------------------------------------------------|
G|----------------------------------------------------------------------------------|
C|----------------------------------------------------------------------------------|

Guitar 2

D|---------9-----------9-----------9--------------9----|
A|------7-----7-----7-----7-----7-----7-----7--------7-|
F|---9-----------9-----------9-----------9-------------|
C|-----------------------------------------------------|
G|-----------------------------------------------------|
C|-----------------------------------------------------|

Guitar 2

D|---------9-----------9-----------9--------------9----|
A|------7-----7-----7-----7-----7-----7-----7--------7-|
F|---9-----------9-----------9-----------9-------------|
C|-----------------------------------------------------|
G|-----------------------------------------------------|
C|-----------------------------------------------------|

Guitar 2

D|---------9-----------9-----------9--------------9----|
A|------7-----7-----7-----7-----7-----7-----7--------7-|
F|---9-----------9-----------9-----------9-------------|
C|-----------------------------------------------------|
G|-----------------------------------------------------|
C|-----------------------------------------------------|

Guitar 1

D|-----------------------------------------------------|
A|-----------------------------------------------------|
F|-----------------------------------------------------|
C|-----------------------------------------------------|
G|-------------------------------------2-2-2-2-2-2-2-2-|
C|-------------------------------------2-2-2-2-2-2-2-2-|
                                   pm  . . . . . . . .
Guitar 2

D|---------9-----------9-----------9--------------9----|
A|------7-----7-----7-----7-----7-----7-----7--------7-|
F|---9-----------9-----------9-----------9-------------|
C|-----------------------------------------------------|
G|-----------------------------------------------------|
C|-----------------------------------------------------|

Guitar 1 (distortion)

D|-------------------------------------------------|
A|-------------------------------------------------|
F|-------------------------------------------------|
C|----4-----------6-----------0-----------2--------|
G|----4-----------6-----------0-----------2--------|
C|----4-----------6-----------0-----------2--------|

Guitar 2 cont... (clean)

D|--------0---2------0---2-------0---2-----0---2---|
A|-------------------------------------------------|
F|-------------------------------------------------|
C|-------------------------------------------------|
G|-------------------------------------------------|
C|----4-----------6-----------0-----------2--------|

Guitar 1 (distortion)

D|-------------------------------------------------|
A|-------------------------------------------------|
F|-------------------------------------------------|
C|----4-----------6-----------0-----------2--------|
G|----4-----------6-----------0-----------2-222222-|
C|----4-----------6-----------0-----------2-222222-|
                                         pm ......
Guitar 2 cont... (clean)

D|--------0---2------0---2-------0---2-----0---2---|
A|-------------------------------------------------|
F|-------------------------------------------------|
C|-------------------------------------------------|
G|-------------------------------------------------|
C|----4-----------6-----------0-----------2--------|

Guitar 1 (distortion)

D|-------------------------------------------------|
A|-------------------------------------------------|
F|-------------------------------------------------|
C|----4-----------6-----------0-----------2--------|
G|----4-----------6-----------0-----------2--------|
C|----4-----------6-----------0-----------2--------|
                                         
Guitar 2 cont... (clean)

D|--------0---2------0---2-------0---2-----0---2---|
A|-------------------------------------------------|
F|-------------------------------------------------|
C|-------------------------------------------------|
G|-------------------------------------------------|
C|----4-----------6-----------0-----------2--------|

Guitar 1 (distortion)

D|------------------------------------------------------------|
A|------------------------------------------------------------|
F|------------------------------------------------------------|
C|----4-----------6-----------0-----------2-------------4-----|
G|----4-----------6-----------0-----------2-2-2-2-------4-----|
C|----4-----------6-----------0-----------2-2-2-2-------4-----|
                                         pm . . .      hold
Guitar 2 cont... (clean)

D|--------0---2------0---2-------0---2------0------|
A|-------------------------------------------------|
F|-------------------------------------------------|
C|-------------------------------------------------|
G|-------------------------------------------------|
C|----4-----------6-----------0-----------2--------|

Guitar 1 (light distortion)

D|-----------------------------------------------------|
A|-----------------------------------------------------|
F|---11----------------------------------11h13---------|
C|-----------------------------------------------------|
G|-----------------------------------------------------|
C|-----------------------------------------------------|

Guitar 2

D|---------9-----------9-----------9--------------9----|
A|------7-----7-----7-----7-----7-----7-----7--------7-|
F|---9-----------9-----------9-----------9-------------|
C|-----------------------------------------------------|
G|-----------------------------------------------------|
C|-----------------------------------------------------|


Guitar 1 (light distortion)

D|-----------------------------------------------------|
A|-----------------------------------------------------|
F|-------------12/14--------------------14-13------|
C|-----------------------------------------------------|
G|-----------------------------------------------------|
C|-----------------------------------------------------|

Guitar 2

D|---------9-----------9-----------9--------------9----|
A|------7-----7-----7-----7-----7-----7-----7--------7-|
F|---9-----------9-----------9-----------9-------------|
C|-----------------------------------------------------|
G|-----------------------------------------------------|
C|-----------------------------------------------------|

Guitar 1 (light distortion)

D|-----------------------------------------------------|
A|-----------------------------------------------------|
F|-----------------------------------------------------|
C|---4-----------------------------------6-------------|
G|---4-----------------------------------6-------------|
C|---4-----------------------------------6-------------|

Guitar 2

D|---------9-----------9-----------9--------------9----|
A|------7-----7-----7-----7-----7-----7-----7--------7-|
F|---9-----------9-----------9-----------9-------------|
C|-----------------------------------------------------|
G|-----------------------------------------------------|
C|-----------------------------------------------------|


Guitar 1 (light distortion)

D|-----------------------------------------------------|
A|-----------------------------------------------------|
F|-----------------------------------------------------|
C|--------------7------------------------6-------------|
G|--------------7------------------------6-------------|
C|--------------7------------------------6-------------|

Guitar 2

D|---------9-----------9-----------9--------------9----|
A|------7-----7-----7-----7-----7-----7-----7--------7-|
F|---9-----------9-----------9-----------9-------------|
C|-----------------------------------------------------|
G|-----------------------------------------------------|
C|-----------------------------------------------------|

Guitar 1 (light distortion)

D|-----------------------------------------------------|
A|-----------------------------------------------------|
F|-----------------------------------------------------|
C|---4-----------------------------------6-------------|
G|---4-----------------------------------6-------------|
C|---4-----------------------------------6-------------|

Guitar 2

D|---------9-----------9-----------9--------------9----|
A|------7-----7-----7-----7-----7-----7-----7--------7-|
F|---9-----------9-----------9-----------9-------------|
C|-----------------------------------------------------|
G|-----------------------------------------------------|
C|-----------------------------------------------------|


Guitar 1 (light distortion)

D|-----------------------------------------------------|
A|-----------------------------------------------------|
F|-----------------------------------------------------|
C|--------------7------------------------6-------------|
G|--------------7------------------------6-------------|
C|--------------7------------------------6-------------|

Guitar 2

D|---------9-----------9-----------9--------------9----|
A|------7-----7-----7-----7-----7-----7-----7--------7-|
F|---9-----------9-----------9-----------9-------------|
C|-----------------------------------------------------|
G|-----------------------------------------------------|
C|-----------------------------------------------------|

Guitars 1 and 2

D|----------------------------------|
A|----------------------------------|
F|----------------------------------|
C|----------------------------------|
G|----4-4-4-4-4-4-4-4---4-----------|
C|----4-4-4-4-4-4-4-4---4-----------|
  pm  . . . . . . . .   .

Guitars 1 and 2

D|---------------------------------------------------------------------------------|
A|---------------------------------------------------------------------------------|
F|---------------------------------------------------------------------------------|
C|---4-4-4-4-4-4-4-4-4-4-4-4----2-2-2-2-2-2-2-2-2-2-2-2----0-0-0-0-0-0-0-0-0-0-0-0-|
G|---4-4-4-4-4-4-4-4-4-4-4-4----2-2-2-2-2-2-2-2-2-2-2-2----0-0-0-0-0-0-0-0-0-0-0-0-|
C|---4-4-4-4-4-4-4-4-4-4-4-4----2-2-2-2-2-2-2-2-2-2-2-2----0-0-0-0-0-0-0-0-0-0-0-0-|

Guitars 1 and 2

D|---------------------------|
A|---------------------------|
F|---------------------------|
C|--9-9-9-9-9---7-7-7-7-7----|
G|--9-9-9-9-9---7-7-7-7-7----|
C|--9-9-9-9-9---7-7-7-7-7----|

Guitars 1 and 2

D|-----------------------------------------|
A|-----------------------------------------|
F|-----------------------------------------|
C|-----------------------------------------|
G|--4-4-2-4-2-4b5-2-4----------------------|
C|--4-4-2-4-2-4b5-2-4----------------------|

Guitars 1 and 2

D|-----------------------------------------|
A|-----------------------------------------|
F|-----------------------------------------|
C|-----------------------------------------|
G|--4-4-2-4-2-4b5-2-4----------------------|
C|--4-4-2-4-2-4b5-2-4----------------------|

Guitars 1 and 2

D|-----------------------------------------|
A|-----------------------------------------|
F|-----------------------------------------|
C|-----------------------------------------|
G|--4-4-2-4-2-4b5-2-4----------------------|
C|--4-4-2-4-2-4b5-2-4----------------------|

Guitars 1
D|---------------------------|
A|---------------------------|
F|---------------------------|
C|--9-9-9-9-9---7-7-7-7-7----|
G|--9-9-9-9-9---7-7-7-7-7----|
C|--9-9-9-9-9---7-7-7-7-7----|

Guitars 2

D|---------------------------|
A|---------------------------|
F|---------------------------|
C|---------------------------|
G|----4-4-2-4-2-4b5-2-4------|
C|----4-4-2-4-2-4b5-2-4------|


Guitar 1 (light distortion)

D|-----------------------------------------------------|
A|-----------------------------------------------------|
F|-----------------------------------------------------|
C|---4-----------------------------------6-------------|
G|---4-----------------------------------6-------------|
C|---4-----------------------------------6-------------|

Guitar 2

D|---------9-----------9-----------9--------------9----|
A|------7-----7-----7-----7-----7-----7-----7--------7-|
F|---9-----------9-----------9-----------9-------------|
C|-----------------------------------------------------|
G|-----------------------------------------------------|
C|-----------------------------------------------------|


Guitar 1 (light distortion)

D|-----------------------------------------------------|
A|-----------------------------------------------------|
F|-----------------------------------------------------|
C|--------------0------------------------2-------------|
G|--------------0------------------------2-------------|
C|--------------0------------------------2-------------|

Guitar 2 (quiet in background)

D|---------9-----------9-----------9--------------9----|
A|------7-----7-----7-----7-----7-----7-----7--------7-|
F|---9-----------9-----------9-----------9-------------|
C|-----------------------------------------------------|
G|-----------------------------------------------------|
C|-----------------------------------------------------|


Guitar 1 (light distortion)

D|-----------------------------------------------------|
A|-----------------------------------------------------|
F|-----------------------------------------------------|
C|---4-----------------------------------6-------------|
G|---4-----------------------------------6-------------|
C|---4-----------------------------------6-------------|

Guitar 2

D|---------9-----------9-----------9--------------9----|
A|------7-----7-----7-----7-----7-----7-----7--------7-|
F|---9-----------9-----------9-----------9-------------|
C|-----------------------------------------------------|
G|-----------------------------------------------------|
C|-----------------------------------------------------|


Guitar 1 (light distortion)

D|-----------------------------------------------------|
A|-----------------------------------------------------|
F|-----------------------------------------------------|
C|--------------0------------------------2-------------|
G|--------------0------------------------2-------------|
C|--------------0------------------------2-------------|

Guitar 2 (quiet in background)

D|---------9-----------9-----------9--------------9----|
A|------7-----7-----7-----7-----7-----7-----7--------7-|
F|---9-----------9-----------9-----------9-------------|
C|-----------------------------------------------------|
G|-----------------------------------------------------|
C|-----------------------------------------------------|


Guitar 1 (light distortion)

D|-----------------------------------------------------|
A|-----------------------------------------------------|
F|-----------------------------------------------------|
C|---4-----------------------------------6-------------|
G|---4-----------------------------------6-------------|
C|---4-----------------------------------6-------------|

Guitar 2

D|---------9-----------9-----------9--------------9----|
A|------7-----7-----7-----7-----7-----7-----7--------7-|
F|---9-----------9-----------9-----------9-------------|
C|-----------------------------------------------------|
G|-----------------------------------------------------|
C|-----------------------------------------------------|


Guitar 1 (light distortion)

D|-----------------------------------------------------|
A|-----------------------------------------------------|
F|-----------------------------------------------------|
C|--------------0------------------------2-------------|
G|--------------0------------------------2-------------|
C|--------------0------------------------2-------------|

Guitar 2 (quiet in background)

D|---------9-----------9-----------9--------------9----|
A|------7-----7-----7-----7-----7-----7-----7--------7-|
F|---9-----------9-----------9-----------9-------------|
C|-----------------------------------------------------|
G|-----------------------------------------------------|
C|-----------------------------------------------------|


Guitar 1 (light distortion)

D|-----------------------------------------------------|
A|-----------------------------------------------------|
F|-----------------------------------------------------|
C|---4-----------------------------------6-------------|
G|---4-----------------------------------6-------------|
C|---4-----------------------------------6-------------|

Guitar 2

D|---------9-----------9-----------9--------------9----|
A|------7-----7-----7-----7-----7-----7-----7--------7-|
F|---9-----------9-----------9-----------9-------------|
C|-----------------------------------------------------|
G|-----------------------------------------------------|
C|-----------------------------------------------------|


Guitar 1 (light distortion)

D|-----------------------------------------------------|
A|-----------------------------------------------------|
F|-----------------------------------------------------|
C|--------------0------------------------2-------------|
G|--------------0------------------------2-2-2-2-2-2-2-|
C|--------------0------------------------2-2-2-2-2-2-2-|
                                       pm  . . . . . .


Guitar 1 (distortion)

D|-------------------------------------------------|
A|-------------------------------------------------|
F|-------------------------------------------------|
C|----4-----------6-----------0-----------2--------|
G|----4-----------6-----------0-----------2--------|
C|----4-----------6-----------0-----------2--------|

Guitar 2 cont... (clean)

D|--------0---2------0---2-------0---2-----0---2---|
A|-------------------------------------------------|
F|-------------------------------------------------|
C|-------------------------------------------------|
G|-------------------------------------------------|
C|----4-----------6-----------0-----------2--------|

Guitar 1 (distortion)

D|-------------------------------------------------|
A|-------------------------------------------------|
F|-------------------------------------------------|
C|----4-----------6-----------0-----------2--------|
G|----4-----------6-----------0-----------2-222222-|
C|----4-----------6-----------0-----------2-222222-|
                                         pm ......
Guitar 2 cont... (clean)

D|--------0---2------0---2-------0---2-----0---2---|
A|-------------------------------------------------|
F|-------------------------------------------------|
C|-------------------------------------------------|
G|-------------------------------------------------|
C|----4-----------6-----------0-----------2--------|

Guitar 1 (distortion)

D|-------------------------------------------------|
A|-------------------------------------------------|
F|-------------------------------------------------|
C|----4-----------6-----------0-----------2--------|
G|----4-----------6-----------0-----------2--------|
C|----4-----------6-----------0-----------2--------|
                                         
Guitar 2 cont... (clean)

D|--------0---2------0---2-------0---2-----0---2---|
A|-------------------------------------------------|
F|-------------------------------------------------|
C|-------------------------------------------------|
G|-------------------------------------------------|
C|----4-----------6-----------0-----------2--------|

Guitar 1 (distortion)

D|-------------------------------------------------|
A|-------------------------------------------------|
F|-------------------------------------------------|
C|----4-----------6-----------0-----------2--------|
G|----4-----------6-----------0-----------2-2-2-2--|
C|----4-----------6-----------0-----------2-2-2-2--|
                                         pm . . .  
Guitar 2 cont... (clean)

D|--------0---2------0---2-------0---2------0------|
A|-------------------------------------------------|
F|-------------------------------------------------|
C|-------------------------------------------------|
G|-------------------------------------------------|
C|----4-----------6-----------0-----------2--------|

Guitar 1 (light distortion)

D|-----------------------------------------------------|
A|-----------------------------------------------------|
F|-----------------------------------------------------|
C|---4-----------------------------------6-------------|
G|---4-----------------------------------6-------------|
C|---4-----------------------------------6-------------|

Guitar 2

D|---------9-----------9-----------9--------------9----|
A|------7-----7-----7-----7-----7-----7-----7--------7-|
F|---9-----------9-----------9-----------9-------------|
C|-----------------------------------------------------|
G|-----------------------------------------------------|
C|-----------------------------------------------------|


Guitar 1 (light distortion)

D|-----------------------------------------------------|
A|-----------------------------------------------------|
F|-----------------------------------------------------|
C|--------------0------------------------2-------------|
G|--------------0------------------------2-------------|
C|--------------0------------------------2-------------|

Guitar 2 (quiet in background)

D|---------9-----------9-----------9--------------9----|
A|------7-----7-----7-----7-----7-----7-----7--------7-|
F|---9-----------9-----------9-----------9-------------|
C|-----------------------------------------------------|
G|-----------------------------------------------------|
C|-----------------------------------------------------|


Guitar 1 (light distortion)

D|-----------------------------------------------------|
A|-----------------------------------------------------|
F|-----------------------------------------------------|
C|---4-----------------------------------6-------------|
G|---4-----------------------------------6-------------|
C|---4-----------------------------------6-------------|

Guitar 2

D|---------9-----------9-----------9--------------9----|
A|------7-----7-----7-----7-----7-----7-----7--------7-|
F|---9-----------9-----------9-----------9-------------|
C|-----------------------------------------------------|
G|-----------------------------------------------------|
C|-----------------------------------------------------|


Guitar 1 (light distortion)

D|-----------------------------------------------------|
A|-----------------------------------------------------|
F|-----------------------------------------------------|
C|--------------0------------------------2-------------|
G|--------------0------------------------2-------------|
C|--------------0------------------------2-------------|

Guitar 2 (quiet in background)

D|---------9-----------9-----------9--------------9----|
A|------7-----7-----7-----7-----7-----7-----7--------7-|
F|---9-----------9-----------9-----------9-------------|
C|-----------------------------------------------------|
G|-----------------------------------------------------|
C|-----------------------------------------------------|


Guitar 1 (light distortion)

D|-----------------------------------------------------|
A|-----------------------------------------------------|
F|-----------------------------------------------------|
C|---4-----------------------------------6-------------|
G|---4-----------------------------------6-------------|
C|---4-----------------------------------6-------------|

Guitar 2

D|---------9-----------9-----------9--------------9----|
A|------7-----7-----7-----7-----7-----7-----7--------7-|
F|---9-----------9-----------9-----------9-------------|
C|-----------------------------------------------------|
G|-----------------------------------------------------|
C|-----------------------------------------------------|


Guitar 1 (light distortion)

D|-----------------------------------------------------|
A|-----------------------------------------------------|
F|-----------------------------------------------------|
C|--------------0------------------------2-------------|
G|--------------0------------------------2-------------|
C|--------------0------------------------2-------------|

Guitar 2 (quiet in background)

D|---------9-----------9-----------9--------------9----|
A|------7-----7-----7-----7-----7-----7-----7--------7-|
F|---9-----------9-----------9-----------9-------------|
C|-----------------------------------------------------|
G|-----------------------------------------------------|
C|-----------------------------------------------------|


Guitar 1 (light distortion)

D|-----------------------------------------------------|
A|-----------------------------------------------------|
F|-----------------------------------------------------|
C|---4-----------------------------------6-------------|
G|---4-----------------------------------6-------------|
C|---4-----------------------------------6-------------|

Guitar 2

D|---------9-----------9-----------9--------------9----|
A|------7-----7-----7-----7-----7-----7-----7--------7-|
F|---9-----------9-----------9-----------9-------------|
C|-----------------------------------------------------|
G|-----------------------------------------------------|
C|-----------------------------------------------------|


Guitar 1 (light distortion)

D|----------------------------------------|
A|----------------------------------------|
F|----------------------------------------|
C|----6-----------------------------------|
G|----6-------2-h-4-p-2-------------------|
C|----6-------2-h-4-p-2-------------------|
                     hold


Текст, аккорды и табулатура для песни "The Fake Sound Of Progress", исполняет "Lost Prophets".
Используемые в песне аккорды можно найти в разделе Как брать аккорды. Аккорды для шестиструнной гитары. Другие песни можно найти на нашем сайте, воспользовавшись алфавитным указателем вверху страницы.


Слушать онлайн The Fake Sound Of Progress


LostprophetsThe Fake Sound Of Progress на Яндекс.Музыке


 
Ошибка в тексте? Выделите ошибку и нажмите Ctrl+Enter