song title:Shinobi vs Dragonninja
tabbed by:Lewis Mitchell ([email protected])
tuning: drop c 

intro/chorus
-----------------------------------------------
-----------------------------------------------
-----------------------------------------------
-----------------------------------------------
-----------------------------------------------
0-0-15-14-0-0-0-15-14-0-0-15-14-0-0-0-15-14----

-----------------------------------------------
-----------------------------------------------
----------------------7-------7---------------- (chorus)
------5-------5--------------------------------   (x2)
-----------------------------------------------
3-3-3---3-3-3---5-5-5---5-5-5------------------

verse
--------------------------------------------------------------
--------------------------------------------------------------
--------------------------------------------------------------
0-0-00-0-0-000--0-0-00-0-0-000-3-3-33-3-3-333--2-2-22-2-2-222- x2
0-0-00-0-0-000--0-0-00-0-0-000-3-3-33-3-3-333--2-2-22-2-2-222-
0-0-00-0-0-000--0-0-00-0-0-000-3-3-33-3-3-333--2-2-22-2-2-222-
. . .. . . ...  . . .. . . ... . . .. . . ...  . . .. . . ...

prechorus
-------------------------------------------------------------------
-------------------------------------------------------------------
10----10----10----10----10----10----10----14----10----10---10------
---10----10----10----12----12----12--------------------------------
---------------------------------------10----10----10----8----8----
----------------------------------------------------------------10-

-----------------------------------------------------------------------
-----------------------------------------------------------------------
10----10----10----10----10----10----14----14----14----14----14----14---
---10----10----10----12----12----12----14----14----14----15----15----15
-----------------------------------------------------------------------
-----------------------------------------------------------------------


bridge
-----------------------------------------------
-----------------------------------------------
-----------------------------------------------
8--------------------0-------------------------
8--------------------0-------------------------
8--------------------0-------------------------

outro
--------|----------------------
--------|----------------------
--------|----------------------
--------|--2-2-----------------
--------|--2-2-----------------
0-0-000-|--2-2-----------------
repeat    . .
  x15
w/ modulation

--------------------------
--------------------------
--------------------------
0-0-3-2-0-0-0-3-2--------- x8
0-0-3-2-0-0-0-3-2---------
0-0-3-2-0-0-0-3-2---------

-------------------
-------------------
-------------------
0-0-00-0-0-000-----
0-0-00-0-0-000-----
0-0-00-0-0-000-----
. . .. . . ...


Текст, аккорды и табулатура для песни "Shinobi Vs Dragon Ninja (ver 8)", исполняет "Lost Prophets".
Используемые в песне аккорды можно найти в разделе Как брать аккорды. Аккорды для шестиструнной гитары. Другие песни можно найти на нашем сайте, воспользовавшись алфавитным указателем вверху страницы.


 
Ошибка в тексте? Выделите ошибку и нажмите Ctrl+Enter