Shinobi Vs. Dragon Ninja  (99% PERFECT)
Tuning : C (CGDGBE)
Album : Thefakesoundofprogress


C--0~0---0~00---0~0--0~000---3~33--3~33---5~55-5~55-5~55----
G-----87-----87----87-----87--------------------------------
D--------------------------------3~----3~-----5~--------5~------  x1 - intro
G---------------------------------------------7~--------7~------  Clean sound.
B---------------------------------------------------------------
E---------------------------------------------------------------

C--0~0---0~00---0~0--0~000---3~33--3~33---5~55-5~55-5~55----
G--0--87-----87----87-----87--------------------------------
D--------------------------------3~----3~-----5~--------5~--  x2 - Chorus
G---------------------------------------------7~--------7~--  Distortion On.
B-----------------------------------------------------------
E-----------------------------------------------------------

C--00 000 00-00 000 00-33 333 33-22 222 22--
G--00 000 00-00 000 00-33 333 33-22 222 22--
D------------------------------------------- x2 - Verse
G------------------------------------------- Distortion On.
B-------------------------------------------
E-------------------------------------------

C-----------------------------------
G-----------------------------------
D----------------------------------- x2 - Bridge
G----8--8--8--8--8--8----8--8--8~~-- Distortion Off.
B--8--8--8--8--8--8--9--8--8--8-----
E-----------------------------------

C--0~0---0~00---0~0--0~000---3~33--3~33---5~55-5~55-5~55----
G--0--87-----87----87-----87--------------------------------
D--------------------------------3~----3~-----5~--------5~--  x2 - Chorus
G---------------------------------------------7~--------7~--  Distortion On.
B-----------------------------------------------------------
E-----------------------------------------------------------

C--00 000 00-00 000 00-33 333 33-22 222 22--
G--00 000 00-00 000 00-33 333 33-22 222 22--
D------------------------------------------- x2 - Verse
G------------------------------------------- Distortion On.
B-------------------------------------------
E-------------------------------------------

C-----------------------------------
G-----------------------------------
D----------------------------------- x2 - Bridge
G----8--8--8--8--8--8----8--8--8~~-- Distortion Off.
B--8--8--8--8--8--8--9--8--8--8-----
E-----------------------------------

C--0~0---0~00---0~0--0~000---3~33--3~33---5~55-5~55-5~55----
G--0--87-----87----87-----87--------------------------------
D--------------------------------3~----3~-----5~--------5~--  x2 - Chorus
G---------------------------------------------7~--------7~--  Distortion On.
B-----------------------------------------------------------
E-----------------------------------------------------------

C--8~~~~~-0~~~~~-3~~~~~-8~~~8~~~0--
G--8~~~~~-0~~~~~-3~~~~~-8~~~8~~~0--
D---------------------------------- x1 - Distortion On.
G----------------------------------
B----------------------------------
E----------------------------------

(SMALL PLECTRUM SLIDES ON TOP STRING, WITH A COOL EFFECT)

C--0~0032-0~0032-0~0032-0~0032--
G--0~032-0~0032-0~0032-0~0032---
D------------------------------- x16
G------------------------------- Distortion On.
B-------------------------------
E-------------------------------

C--00 1 00 0000--
G--00 1 00 0000--
D---------------- x1 - Ending.
G---------------- Distortion On.
B----------------
E----------------

There ya go.....


Текст, аккорды и табулатура для песни "Shinobi Vs Dragon Ninja", исполняет "Lost Prophets".
Используемые в песне аккорды можно найти в разделе Как брать аккорды. Аккорды для шестиструнной гитары. Другие песни можно найти на нашем сайте, воспользовавшись алфавитным указателем вверху страницы.


Слушать онлайн Shinobi vs. Dragon Ninja


LostprophetsShinobi vs. Dragon Ninja на Яндекс.Музыке


 
Ошибка в тексте? Выделите ошибку и нажмите Ctrl+Enter