Lost Prophets- Last Train Home
Tabbed by Ray
Should be pretty right

Intro
Guitar 1
e|------------------------------------------|
B|----12---12---12---12---12---12---12---12-|
G|--12---12---12---12----12---12---12---12--|
D|-9----9----9----9-------------------------|
A|----------------------9----9----9----9----|
E|------------------------------------------|

e|------------------------------------------|
B|---12---12---12---12---12---12---12---12--|
G|--12---12---12---12---12---12---12---12---|
D|------------------------------------------|
A|------------------------------------------|
E|-9----9----9----9----9----9----9----9-----|

Intro Part 2
Guitar 1
e|------------------------------------------|
B|----12---12---12---12---12---12---12---12-|
G|--12---12---12---12----12---12---12---12--|
D|-9----9----9----9-------------------------|
A|----------------------9----9----9----9----|
E|------------------------------------------|

e|------------------------------------------|
B|---12---12---12---12---12---12---12---12--|
G|--12---12---12---12---12---12---12---12---|
D|------------------------------------------|
A|------------------------------------------|
E|-9----9----9----9----9----9----9----9-----|

Guitar 2
e|------------------------------------------------------|
B|------------------------------------------------------|
G|-5-5--5-5-5--5-5-5--5-5-5--9-9--9-9-9--9-9-9--9-9-9---|
D|-5-5--5-5-5--5-5-5--5-5-5--9-9--9-9-9--9-9-9--9-9-9---|
A|-3-3--3-3-3--3-3-3--3-3-3--7-7--7-7-7--7-7-7--7-7-7---|
E|------------------------------------------------------|

e|------------------------------------------------------|
B|------------------------------------------------------|
G|-2-2--2-2-2--2-2-2--2-2-2--2-2-2--2-2-2--2-2-2--2-2-2-|
D|-2-2--2-2-2--2-2-2--2-2-2--2-2-2--2-2-2--2-2-2--2-2-2-|
A|-0-0--0-0-0--0-0-0--0-0-0--0-0-0--0-0-0--0-0-0--0-0-0-|
E|------------------------------------------------------|

Verse 1
Guitar 1
e|--------------------------------------|
B|-12-12--12-12-12-12-12-12-12-12-12-12-| 
G|-12-12--12-12-12-12-12-12-12-12-12-12-|
D|-9--9---9--9--9--9--9--9--9--9--9--9--|
A|--------------------------------------|
E|--------------------------------------|
               
e|--------------------------------------|
B|-12-12--12-12-12-12-12-12-12-12-12-12-|
G|-12-12--12-12-12-12-12-12-12-12-12-12-|
D|--------------------------------------|
A|-9--9---9--9--9--9--9--9--9--9--9--9--|
E|--------------------------------------|
            
e|--------------------------------------|
B|-12-12-12-12-12-10-10-10-10-10-10-----|
G|-12-12-12-12-12-12-12-12-12-12-12-----|
D|-0--0--0--0--0--0--0--0--0--0--0------|
A|--------------------------------------|
E|--------------------------------------|
               
e|--------------------------------------|
B|-12-12-12-12-12-10-10-10-10-10-10-----|
G|-12-12-12-12-12-12-12-12-12-12-12-----|
D|-0--0--0--0--0--0--0--0--0--0--0------|
A|--------------------------------------|
E|--------------------------------------|4x

Prechorus
Both Guitars
e|------------------------------------------------------------------|
B|------------------------------------------------------------------|
G|-4-4-4-4-4-4-4-4-4-4-4-4-4-4-4-4--7-7-7-7-7-7-7-7-7-7-7-7-7-7-7-7-|
D|-4-4-4-4-4-4-4-4-4-4-4-4-4-4-4-4--7-7-7-7-7-7-7-7-7-7-7-7-7-7-7-7-|
A|-2-2-2-2-2-2-2-2-2-2-2-2-2-2-2-2--5-5-5-5-5-5-5-5-5-5-5-5-5-5-5-5-|
E|------------------------------------------------------------------|

e|------------------------------------------------------------------|
B|------------------------------------------------------------------|
G|-2-2-2-2-2-2-2-2-2-2-2-2-2-2-2-2----------------------------------|
D|-2-2-2-2-2-2-2-2-2-2-2-2-2-2-2-2--2-2-2-2-2-2-2-2-2-2-2-2-2-2-2-2-|
A|-0-0-0-0-0-0-0-0-0-0-0-0-0-0-0-0--2-2-2-2-2-2-2-2-2-2-2-2-2-2-2-2-|
E|----------------------------------0-0-0-0-0-0-0-0-0-0-0-0-0-0-0-0-|2x

Fill
Guitar 1
e|----12---12---12---12-|
B|---12---12---12---12--|
G|--9----9----9----9----|
D|----------------------|
A|----------------------|
E|----------------------|

Chorus
Guitar 1
e|------------------------------------------|
B|----12---12---12---12---12---12---12---12-|
G|--12---12---12---12----12---12---12---12--|
D|-9----9----9----9-------------------------|
A|----------------------9----9----9----9----|
E|------------------------------------------|

e|------------------------------------------|
B|---12---12---12---12---12---12---12---12--|
G|--12---12---12---12---12---12---12---12---|
D|------------------------------------------|
A|------------------------------------------|
E|-9----9----9----9----9----9----9----9-----|2x

Guitar 2
e|------------------------------------------------------|
B|------------------------------------------------------|
G|-5-5--5-5-5--5-5-5--5-5-5--9-9--9-9-9--9-9-9--9-9-9---|
D|-5-5--5-5-5--5-5-5--5-5-5--9-9--9-9-9--9-9-9--9-9-9---|
A|-3-3--3-3-3--3-3-3--3-3-3--7-7--7-7-7--7-7-7--7-7-7---|
E|------------------------------------------------------|

e|------------------------------------------------------|
B|------------------------------------------------------|
G|-2-2--2-2-2--2-2-2--2-2-2--2-2-2--2-2-2--2-2-2--2-2-2-|
D|-2-2--2-2-2--2-2-2--2-2-2--2-2-2--2-2-2--2-2-2--2-2-2-|
A|-0-0--0-0-0--0-0-0--0-0-0--0-0-0--0-0-0--0-0-0--0-0-0-|2x
E|------------------------------------------------------|

Repeat
Verse 4x
Prechorus 2x
Fill 1x

Interlude part 1
Guitar 2
e|------------------------------------------------------|
B|------------------------------------------------------|
G|------------------------------------------------------|
D|-2-2--2-2-2--2-2-2--2-2-2--2-2-2--2-2-2--2-2-2--2-2-2-|
A|-2-2--2-2-2--2-2-2--2-2-2--2-2-2--2-2-2--2-2-2--2-2-2-|
E|-0-0--0-0-0--0-0-0--0-0-0--0-0-0--0-0-0--0-0-0--0-0-0-|2x

Guitar 1 after guitar 2 plays interlude once.
e|-3-4-1--3-4-1--3-4-1--3-4-1--1~-|
B|--------------------------------|
G|--------------------------------|
D|--------------------------------|
A|--------------------------------|
E|--------------------------------|

Interlude part 2
Guitar 1
e|------------------------------------------------------------------------|
B|----12---------12----------12----12----12----12----12----12----12----12-|
G|--12---------12----------12----12----12----12----12----12----12----12---|
D|-9----------------------------------------------------------------------|
A|-----------9------------------------------------------------------------|
E|------------------------9-----9-----9-----9-----9-----9-----9-----9-----|

Repeat Chourus 1x

Outro
e|--------------------------------------------------|
B|------12---------12-----12-----12-----12-----12---|
G|--12--------12-------12-----12-----12-----12------|
D|-9--12--------------------------------------------|
A|----------9----9----------------------------------|
E|-----------------------9--9---9--9---9--9---9--9--|Repeat until end of song

Enjoy


Текст, аккорды и табулатура для песни "Last Train Home", исполняет "Lost Prophets".
Используемые в песне аккорды можно найти в разделе Как брать аккорды. Аккорды для шестиструнной гитары. Другие песни можно найти на нашем сайте, воспользовавшись алфавитным указателем вверху страницы.


Слушать онлайн Last Train Home


LostprophetsLast Train Home на Яндекс.Музыке


 
Ошибка в тексте? Выделите ошибку и нажмите Ctrl+Enter