Band: Lost Prophets
Song: Last Summer
Album: Start Something
Tabber: Haley Tinny - [email protected]
Key
   : Vibrato   Vibrate strings
  : Slide   Slide down strings.

This isn t my favourite song on the album but I tabbed it anywho 
Intro 
Guitar 1
|------------------------------------------------------------------------------|
|----------12--10----------------------10-h-12--------------------------------|
|---9-9-9-------------9-9-9-9-9-9-9-9-----------------------------------------|
|------------------------------------------------------------------------------|   X 7
|------------------------------------------------------------------------------|
|------------------------------------------------------------------------------|
Pm   ...                         .............................
Guitar 2, listen for timing.
|------------------------------------------------------------------------------|
|---8---7---5----|--5-5-----------------|-------------------------------------|
|---9---9---7----|--7-7-- on the 4rd time|-------------------------------------|
|----------------|---- -----play that          |--------------------------------------|   X 4
|----------------|----------------------|--------------------------------------|
|------------------------------------------------------------------------------|

Verse, Guitar 2, X6
|-----------------------------------------------------------------------------|
|-----------------------------------------------------------------------------|
|-----------------------------------------------------------------------------|
|-------12-----12-----12-----12-----12-----12-----12-----12------------------|
|---10-----10-----10-----10-----10-----10-----10-----10----------------------|
|-----------------------------------------------------------------------------|
Continued
|-----------------------------------------------------------------------------|
|-----------------------------------------------------------------------------|
|-----------------------------------------------------------------------------|
|------12----12----12-----12----12----12----12----12-------------------------|
|---9------9-----9------9-----9------9-----9------9--------------------------|
|-----------------------------------------------------------------------------|

Verse, Guitar 1, X 2
|-----------------------------------------------------------------------------|
|-----------------------------------------------------------------------------|
|----5-----------------------------7------------------------------------------|
|----5--------------5--------------7------------------------------------------|
|----3--------------5--------------5------------------------------------------|
|-------------------3---------------------------------------------------------|
Pre- chorus, both guitars, slowly releasing p.m
|------------------------------------------------------------------------------|
|------------------------------------------------------------------------------|
|------------------------------------------------------------------------------|
|----5-5-5-5-5-5-5-5-5-5-5-5-5-5-5-5-5-5-5-5-5-5-5-5-5-----------------------|
|----3-3-3-3-3-3-3-3-3-3-3-3-3-3-3-3-3-3-3-3-3-3-3-3-3-----------------------|
|------------------------------------------------------------------------------|
P.m                ........................

Chorus, guitar 1, X 4
|---------------------------------------------------------------------------------------|
|---------------------------------------------------------------------------------------|
|---------------------------------------------------------------------------------------|
|---5-5-5-5-5-5-5-5-----------------------7-7-7-7-7-7-7-7-7-7-7-7-7-7-7-7-------------|
|---3-3-3-3-3-3-3-3-----5-5-5-5-5-5-5-5--5-5-5-5-5-5-5-5-5-5-5-5-5-5-5-5-------------|
|------------------------3-3-3-3-3-3-3-3-----------------------------------------------|

Chorus, guitar 2, just through the chorus really
|---3-----3------------------------------------------------------------------|
|---2-----2------------------------------------------------------------------|
|---3-----3------------------------------------------------------------------|
|---0-----0------------------------------------------------------------------|
|---0-----0------------------------------------------------------------------|
|----------------------------------------------------------------------------|

Repeat the Intro again, then the verse, then the pre- chorus, then the chorus, then the intro again and 
then 
this solo.

|----------------------------------------15---14------------------------------|
|---15-15-15-15-15-12-12------------------------15---------------------------|
|-------------------------12-12-----------------------------------------------| X3
|-----------------------------------------------------------------------------|
|-----------------------------------------------------------------------------|
|-----------------------------------------------------------------------------|
Continued
|---15-14------15-14------17-15------19-17----------------------------------|
|---------15----------15--------15----------15-------------------------------|
|-----------------------------------------------------------------------------|
|-----------------------------------------------------------------------------|
|-----------------------------------------------------------------------------|
|-----------------------------------------------------------------------------|

I don t know this bit now, it s got some chords in and the solo, then it goes back to the chorus with the 
solo 
still going and it ends like this.
|---------|
|---------|
|----7----|
|----7----|
|----5----|
|---------|


Текст, аккорды и табулатура для песни "Last Summer", исполняет "Lost Prophets".
Используемые в песне аккорды можно найти в разделе Как брать аккорды. Аккорды для шестиструнной гитары. Другие песни можно найти на нашем сайте, воспользовавшись алфавитным указателем вверху страницы.


Слушать онлайн Last Summer


LostprophetsLast Summer на Яндекс.Музыке


 
Ошибка в тексте? Выделите ошибку и нажмите Ctrl+Enter