Artist: Lost Prophets
Title: I Don't Know
Album: Start Something
Tuning: Dropped D (DADGBe) Low to High
Tabber: [email protected]

This album is a real bitch to tab i can tell you that.

Ok, so I don't like to post unfinished tabs, but
for the life of me i cant figure out one part of the solo.
I'll post it when i've done it. Any help will be great too.
The part that i've missed will just be left blank, so you know
the part.

Again, i haven't put the timing, just listen to the
song and its pretty simple

UPDATE: Done what i can for the impossible part
of the solo.

Intro (Lead): 
|-------------------------------|
|-------------------0---5---0---|
|-----6------6------------------|
|---6------6------6---6---6---6-|
|-4-----0------0----------------|
|-------------------------------|

|----------------------------------|
|-------------------0--------------|
|-----6------6-----------6/96--6--|
|---6------6------6---6--6/96--6--|
|-4-----0------0-------------------|
|----------------------------------|

|-------------------------------|
|-------------------0---5---0---|
|-----6------6------------------|
|---6------6------6---6---6---6-|
|-4-----0------0----------------|
|-------------------------------|

|------------------------------|
|-------------------0----5-5-5-|
|-----6------6-----------6-6-6-|
|---6------6------6---6--6-6-6-|
|-4-----0------0---------4-4-4-|
|------------------------------|




Verse (Lead): This is just the Intro played again.
Play this a few times
|-------------------------------|
|-------------------0---5---0---|
|-----6------6------------------|
|---6------6------6---6---6---6-|
|-4-----0------0----------------|
|-------------------------------|

|----------------------------------|
|-------------------0--------------|
|-----6------6-----------6/96--6--|
|---6------6------6---6--6/96--6--|
|-4-----0------0-------------------|
|----------------------------------|

|-------------------------------|
|-------------------0---5---0---|
|-----6------6------------------|
|---6------6------6---6---6---6-|
|-4-----0------0----------------|
|-------------------------------|

|------------------------------|
|-------------------0----5-5-5-|
|-----6------6-----------6-6-6-|
|---6------6------6---6--6-6-6-|
|-4-----0------0---------4-4-4-|
|------------------------------|




Pre-Chorus (Rhythm):
|------------------------------|
|------------------------------|
|------------------------------|
|-4---7---2---7---4------------|
|-4---7---2---7---4------------|
|-4---7---2---7---4------------|

|------------------------------|
|------------------------------|
|------------------------------|
|-4---7---9---7---2------------|
|-4---7---9---7---2------------|
|-4---7---9---7---2------------|

Pre-Chorus (Lead):
|------------------------------|
|------------------------------|
|-6---9---4---9---6------------|
|-6---9---4---9---6------------|
|-4---7---2---7---4------------|
|------------------------------|

|------------------------------|
|------------------------------|
|-6---9---11--9---4------------|
|-6---9---11--9---4------------|
|-4---7---9---7---2------------|
|------------------------------|

Wait until the very end of the Pre-Chorus
and play this:
|--------------------|
|--------------------|
|--------------------|
|-2-2-2--------------|
|-2-2-2--------------|
|-2-2-2--------------|
PM. . .




Chorus (Rhythm):
|----------------------------------------------------------------|
|----------------------------------------------------------------|
|---------------------------------6--6-6-6-6-6-6--4--4-4-4-4-4-4-|
|-7--7-7-7-7-7-7--4--4-4-4-4-4-4--6--6-6-6-6-6-6--4--4-4-4-4-4-4-|
|-7--7-7-7-7-7-7--4--4-4-4-4-4-4--4--4-4-4-4-4-4--2--2-2-2-2-2-2-|
|-7--7-7-7-7-7-7--4--4-4-4-4-4-4---------------------------------|
PM       . .   .         . .   .         . .   .         . .   .

Chorus (Lead): I've tried to match it to the above part
|----------------------------------------------0-------------|
|--------5p0-----------5p0---------------9-7---7-----7-----7-|
|--------------------------------------------9-----9-----9---|
|------------------------------------------------------------|
|------------------------------------------------------------|
|------------------------------------------------------------|

|----------------------------------------------0-----------7-|
|--------5p0-----------5p0---------------9-7---7-----7-------|
|--------------------------------------------9-----9-----9---|
|------------------------------------------------------------|
|------------------------------------------------------------|
|------------------------------------------------------------|


Chorus End (Rhythm):
|------------------------------------------------------------|
|------------------------------------------------------------|
|--------------------------------6---------------6-----------|
|-7--------------4---------------6---------------6-----------|
|-7--------------4---------------4---------------4-----------|
|-7--------------4-------------------------------------------|

Chorus End (Lead):
|--------------7-------------------------------4-------------|
|------5------------------------------5----------------------|
|-/6--------6---------------------6---------6----------------|
|------------------------------------------------------------|
|------------------------------------------------------------|
|------------------------------------------------------------|



Then a short fil part with just the Intro


Then play a Verse


The Pre-Chorus


And another Chorus


Then the Interlude:

Interlude Pt.1 (Lead): I think some of the notes are harmonics,
but this sounds fine
|--------12-------------7--------|
|-----12-------------------------|
|-8h9---------4--4h6--9----------|
|--------------------------------|
|--------------------------------|
|--------------------------------|

|-----------12-----------------7--------|
|--------12----12-----------------------|
|-/8-8h9----------94--4h6--9-----9--6-|
|---------------------------------------|
|---------------------------------------|
|---------------------------------------|



Interlude Pt.2 (Rhythm):
|----------------------------------------------------------------|
|----------------------------------------------------------------|
|----------------------------------------------------------------|
|-4-4-4-4-4-4-4-4---4-4-4-4-4-4-4-7-7-7-7-7-7-7-7---7-7-7-7-7-7-7|
|-4-4-4-4-4-4-4-4---4-4-4-4-4-4-4-7-7-7-7-7-7-7-7---7-7-7-7-7-7-7|
|-4-4-4-4-4-4-4-4---4-4-4-4-4-4-4-7-7-7-7-7-7-7-7---7-7-7-7-7-7-7|
PM. . . . .   .     . . . . . . . . . . . .   .     . . . . . . . 

|----------------------------------------------------------------|
|----------------------------------------------------------------|
|----------------------------------------------------------------|
|-4-4-4-4-4-4-4-4---4-4-4-4-4-4-4-7-7-7-7-7-7-7-6---6-6-6-6-6-6-6|
|-4-4-4-4-4-4-4-4---4-4-4-4-4-4-4-7-7-7-7-7-7-7-6---6-6-6-6-6-6-6|
|-4-4-4-4-4-4-4-4---4-4-4-4-4-4-4-7-7-7-7-7-7-7-6---6-6-6-6-6-6-6|
PM. . . . .   .     . . . . . . . . . . . .   .     . . . . . . . 

Interlude Pt.2 (Lead): This may look really hard, but if you can
find the right finger positions for it, changing the 
chords is easy.
Al Palm Muted.
|--------------------------------------------------------|
|-----12-------12-------12-----10--------10--------10----|
|----9--9-----9--9-----9------9--9------9--9------9------|
|--11----11-11----11-11-----11----11--11----11--11-------|
|-9--------9--------9-----12--------12--------12---------|
|--------------------------------------------------------|

|--------------------------------------------------------|
|-----12-------12-------12-----10--------9--------9------|
|----9--9-----9--9-----9------9--9------9-9------9-------|
|--11----11-11----11-11-----11----11--11---11--11--------|
|-9--------9--------9-----12--------11-------11----------|
|--------------------------------------------------------|


Interlude Pt.3 (Rhythm): This is just the chorus played
on its own
|----------------------------------------------------------------|
|----------------------------------------------------------------|
|---------------------------------6--6-6-6-6-6-6--4--4-4-4-4-4-4-|
|-7--7-7-7-7-7-7--4--4-4-4-4-4-4--6--6-6-6-6-6-6--4--4-4-4-4-4-4-|
|-7--7-7-7-7-7-7--4--4-4-4-4-4-4--4--4-4-4-4-4-4--2--2-2-2-2-2-2-|
|-7--7-7-7-7-7-7--4--4-4-4-4-4-4---------------------------------|
PM       . .   .         . .   .         . .   .         . .   .




Then you play a full Chorus




Solo (Lead): Sorry about the missing bit. 
If you can help just post a comment. Thnx.
(PH) is Pinch Harmonic
|------------------------------------|
|-/4--4-4--5-7b9r7---4--4-4--5-7b9r7-|
|------------------------------------|
|------------------------------------|
|------------------------------------|
|------------------------------------|
 
|-----------(PH)----------------------|
|-0--0-0-2-4b5r4--0-4-5-4-5-4-0-2-2-2-|
|-------------------------------------|
|-------------------------------------|
|-------------------------------------|
|-------------------------------------|



|-------------------------------/12--11------------------------------|
|-/5-4-0-4-2-0-2---/5-4-0-4-2-0---------12----12----12---------00000-|
|------------------------------------------11----11----11--11-------|
|--------------------------------------------------------------------|
|--------------------------------------------------------------------|
|--------------------------------------------------------------------|
PM         . .          .   . .      


this is as close as i could get to it:
|-------4--/4p0h4/7--/7p4h7/12--/12--12/16-|
|-/5p2h5---------------------------12------|
|------------------------------------------|
|------------------------------------------|
|------------------------------------------|
|------------------------------------------|

|---------------19---------------------------|
|-19------------------------19----------19--|
|------18-16-18----18-16-18----18-16-18------|
|--------------------------------------------|
|--------------------------------------------|
|--------------------------------------------|



|-12p9-9-9-12p9-9-9-12p9-9-9-12p9-9-9-14p9-9-9-14p9-9-9-14p9-9-9-14p9-9-9-|
|-------------------------------------------------------------------------|
|-------------------------------------------------------------------------|
|-------------------------------------------------------------------------|
|-------------------------------------------------------------------------|
|-------------------------------------------------------------------------|

|-19p16-16-16-19p16-16-16-19p16-16-16-19p16-16-16-|
|-------------------------------------------------|
|-------------------------------------------------|
|-------------------------------------------------|
|-------------------------------------------------|
|-------------------------------------------------|

|-19p16-16-16-19p16-16-16-21p16-16-16-21p16-16-16-|
|-------------------------------------------------|
|-------------------------------------------------|
|-------------------------------------------------|
|-------------------------------------------------|
|-------------------------------------------------|

Solo (Rhythm):
|----------------------------------------------------------------|
|----------------------------------------------------------------|
|---------------------------------6--6-6-6-6-6-6--4--4-4-4-4-4-4-|
|-7--7-7-7-7-7-7--4--4-4-4-4-4-4--6--6-6-6-6-6-6--4--4-4-4-4-4-4-|
|-7--7-7-7-7-7-7--4--4-4-4-4-4-4--4--4-4-4-4-4-4--2--2-2-2-2-2-2-|
|-7--7-7-7-7-7-7--4--4-4-4-4-4-4---------------------------------|
PM       . .   .         . .   .         . .   .         . .   .





Song End (Lead):
|-/17---17-17------/14---14-14----------0-----|
|--------------------------------------5------|
|-------------------------------------6-------|
|------------------------------------6--------|
|-----------------------------------0---------|
|---------------------------------------------|

Song End (Rhythm):
|------------------------------------|
|------------------------------------|
|------------------------------------|
|-7--7-7----------4--4-4-------------|
|-7--7-7----------4--4-4-------------|
|-7--7-7----------4--4-4-------------|


And thats it.

Yet another great tab from The Legend


Текст, аккорды и табулатура для песни "I Dont Know", исполняет "Lost Prophets".
Используемые в песне аккорды можно найти в разделе Как брать аккорды. Аккорды для шестиструнной гитары. Другие песни можно найти на нашем сайте, воспользовавшись алфавитным указателем вверху страницы.


 
Ошибка в тексте? Выделите ошибку и нажмите Ctrl+Enter