i am 100% sure the intro is correct but dont know about the bridge

Drop D Tuning (d,a,d,g,b,e)

Listen to the song to get the rythym

Intro/verse slight distortion

e---------------------
b---------------------       x2
g-222----55----5---5-7
d-222-33-55-00-5-0-5-7
a-000-33-33-00-3-0-3-5
d-----33----00---0----

Heavy Distortion

e---------------------
b---------------------       x3
g-222----55----5---5-7
d-222-33-55-00-5-0-5-7
a-000-33-33-00-3-0-3-5
d-----33----00---0----

Then 4th time differs

e--------------x-x-x-x
b--------------x-x-x-x    
g-222----55----x-x-x-x
d-222-33-55-00-x-x-x-x
a-000-33-33-00-x-x-x-x
d-----33----00-x-x-x-x

verse same as intro (still slight distortion)
Chorus (same as heavy distorted intro)

verse (still slight distortion)
chorus(same as heavy distorted intro)

Break (heavy distortion)

e----------------------------------------------------------------| 
b----------------------------------------------------------------| 
g--2--------5----------------------------------------------------|
d--2--0--3--5--0---*let ring*------------------------------------| 
a--0--0--3--3--0-------------------------------------------------| 
d-----0--3-----0-------------------------------------------------|

Bridge 

e----------777~---777~---777~------------------------------------| 
b----------------------------------------------------------------| 
g-----5/---------------------------------------------------------|
d----------------------------------------------------------------| 
a----------------------------------------------------------------| 
d----------------------------------------------------------------|

Where do I begin, with this life we're living in 
Market  youth their uniform, make us all fit in 
But do  you think, that we're that  blind? 
That we can't see through  all your lies? 

Cause if its no good 
burn burn the  stations 
we'll burn it down 
burn burn the truth 
enjoy  the flames 
in celebration 
enjoy the sound 
for us for  them  for you 

I know that ive been told 
My intergrity  was sold 
Price  and placed upon the shelf 
Its worth its  weight in gold 
But do you think  we've lost our minds? 
Yeah  we can see through all your lies? 

Cause  if its no good 
burn burn the stations 
we'll burn it down 
burn burn  the truth 
enjoy the flames 
in celebration 
enjoy the  sound 
for us  for them for you 

burn burn the truth  the lies the news 
burn burn the  life that you cant choose 
burn burn the hate that gets you through 
burn  burn for  us, for them, for you 
burn burn for us, for them, for you 
burn  burn for us, for them, for you 
burn burn for us, for them,  for you 

Cause if its no good 
burn burn the stations 
we'll burn it down 
burn burn the truth 
enjoy the flames 
in celebration 
enjoy the  sound 
for us for them for  you 
Cause if its no good 
burn burn the  stations 
we'll  burn it down 
burn burn the truth 
enjoy the flames 
in  celebration 
enjoy the sound 

for us for them for you 
for us for them for you 
for us for them for you 
for us for them for you 
for us for them for you


Текст, аккорды и табулатура для песни "Burn Burn", исполняет "Lost Prophets".
Используемые в песне аккорды можно найти в разделе Как брать аккорды. Аккорды для шестиструнной гитары. Другие песни можно найти на нашем сайте, воспользовавшись алфавитным указателем вверху страницы.


Слушать онлайн Burn, Burn


LostprophetsBurn, Burn на Яндекс.Музыке


 
Ошибка в тексте? Выделите ошибку и нажмите Ctrl+Enter