Mxtabs [http://www.mxtabs.net]
Title: A Thousand Apologies
Artist: Lost Prophets
Album: The Fake Sound Of Progress
Tabbed By Thomas Roberts
Tuning: (in order with lowest string 1st)
H Gb H E Ab Db

Intro Riff
|---------------------------
|---------------------------
|---------------------------
|---------------------------
|------5v--------4v---------
|-2v-2----2-2v-2----2-------

Intro Riff Part 2
|---------------------------
|---------------------------
|-----7v--------6v----------
|2-2--7v-2-2-2--6v--2-2b(3)2
|2-2--5v-2-2-2--4v--2-2b(3)2
|2-2-----2-2-2------2-2b(3)2

Linking Verse Riff
|--------------------------
|--------------------------
|---8-9-----7-6------------
|2--6-9--4--7-4-----------
|2----7--4--5-------------
|2-------4----------------

Little DJ Breakdown Bit
(do a neck bend if you dont have a whammy bar)
|------------------------
|------------------------
|------------------------
|-0   -------------------
|-0   -------------------
|-0   -------------------

Verse
|--------------------------
|--------------------------
|-9p8p7--9p8p7-9p85--7p6p5
|--------------------------
|--------------------------
|---------------------------

Verse part 2
|-----------------------------------------
|-----------------------------------------
|----------------------------14b(15)-14-12
|-000-222-33333-000-222-3333--------------
|-000-222-33333-000-222-3333--------------
|-000-222-33333-000-222-3333--------------

Chorus (But you're all very proud.....)
|---------------------------------------
|---------------------------------------
|999999-9999999--7777777-7777777--------
|999999-9999999--7777777-7777777--------
|777777-7777777--5555555-5555555--------
|---------------------------------------

Chorus Part 2
|---------------------------------------
|---------------------------------------
|999999-9999999--555555555-7777777777---
|999999-9999999--555555555-7777777777---
|777777-7777777--333333333-5555555555---
|---------------------------------------

Bridge
|------------------------------
|------------------------------
|------------------------------
|22-11--22-11-2p1--------------
|22-11--22-11-2p1--------------
|22-11--22-11-2p1--------------

Bridge Part 2
|------------------------------
|------------------------------
|------------------------------
|2p1-11---------1-2p1----------
|2p1-11-4b(5)4--1-2p1----------
|2p1-11---------1-2p1----------

Bridge Part 3
|-------3----------------------
|-------3----------------------
|------------------------------
|2-0-1-----1-1-1-1--1-1--------
|2-0-1-----1-1-1-1--1-1--------
|2-0-1-----1-1-1-1--1-1--------
       P.M .............

End On
|------------
|------------
|------------
|-1----------
|-1----------
|-1----------


Текст, аккорды и табулатура для песни "A Thousand Apologies", исполняет "Lost Prophets".
Используемые в песне аккорды можно найти в разделе Как брать аккорды. Аккорды для шестиструнной гитары. Другие песни можно найти на нашем сайте, воспользовавшись алфавитным указателем вверху страницы.


Слушать онлайн A Thousand Apologies


LostprophetsA Thousand Apologies на Яндекс.Музыке


 
Ошибка в тексте? Выделите ошибку и нажмите Ctrl+Enter