Artist    : Los Prisioneros
Song      : їPor quй no ve van?
Album     : Estadio Nacional

100% Correct.

Intro/Chorus
   C                 F               Am              G#          A# 
E|-8-8-8-8-8-8-8-8-8-1-1-1-1-1-1-1-1-5-5-5-5-5-5-5-5-4-4-4-4-4-4-6-6-6-6-6-6-|
B|-8-8-8-8-8-8-8-8-8-1-1-1-1-1-1-1-1-5-5-5-5-5-5-5-5-4-4-4-4-4-4-6-6-6-6-6-6-|
G|-9-9-9-9-9-9-9-9-9-2-2-2-2-2-2-2-2-5-5-5-5-5-5-5-5-5-5-5-5-5-5-7-7-7-7-7-7-|
D|---------------------------------------------------------------------------|
A|---------------------------------------------------------------------------|
E|---------------------------------------------------------------------------|

Verse
   C               Em              C7              Dm
E|-8-8-8-8-8-8-8-8-7-7-7-7-7-7-7-7-3-3-3-3-3-3-3-3-5-5-5-5-5-5-5-5-|
B|-8-8-8-8-8-8-8-8-8-8-8-8-8-8-8-8-4-4-4-4-4-4-4-4-6-6-6-6-6-6-6-6-|
G|-9-9-9-9-9-9-9-9-9-9-9-9-9-9-9-9-3-3-3-3-3-3-3-3-7-7-7-7-7-7-7-7-|
D|-----------------------------------------------------------------|
A|-----------------------------------------------------------------|
E|-----------------------------------------------------------------|

Pre-Chrorus
   Fm              G
E|-1-1-1-1-1-1-1-1-3-3-3-3-3-3-|
B|-1-1-1-1-1-1-1-1-3-3-3-3-3-3-|
G|-1-1-1-1-1-1-1-1-4-4-4-4-4-4-|
D|-----------------------------|
A|-----------------------------|
E|-----------------------------|

Solo
   C                       Em                      C7                      Dm
E|-13--12--13--12--------/-13--12--13--12--------/-13--12--13--12--------/-----|
B|---13--13--13--13-13-13/---12--12--12--12-12-12/---11--11--11--11-11-11/-10~-|
G|-----------------------/-----------------------/-----------------------/-----|
D|-----------------------/-----------------------/-----------------------/-----|
A|-----------------------/-----------------------/-----------------------/-----|
E|-----------------------/-----------------------/-----------------------/-----|

Bridge
   G#      A#
E|-4-4-4-4-6-6-6-6-|
B|-4-4-4-4-6-6-6-6-|
G|-5-5-5-5-7-7-7-7-|
D|-----------------|
A|-----------------|
E|-----------------|

End
   C
E|-8----|
B|-8----|
G|-9----|
D|-10---|
A|-10---|
E|-8----|

----------------------
Intro      x1
Verso      x2
Pre-Chorus x1
Chorus     x1
Verso      x2
Pre-Chorus x1
Chorus     x2
Bridge     x2
Solo       x2
--=No guitar=--
Bridge     x2
End (C) 
-----------------------

Rall, Chile.
Comments to [email protected]


Текст, аккорды и табулатура для песни "Porqueno Se Van", исполняет "Los Prisioneros".
Используемые в песне аккорды можно найти в разделе Как брать аккорды. Аккорды для шестиструнной гитары. Другие песни можно найти на нашем сайте, воспользовавшись алфавитным указателем вверху страницы.


Слушать онлайн Por Qué No Se Van


Los PrisionerosPor Qué No Se Van на Яндекс.Музыке


 
Ошибка в тексте? Выделите ошибку и нажмите Ctrl+Enter