Jennifer_Lopez_-_If_You_Had_My_Love                       

                                                                        

                                                                    
-------------------|-----------------------|-----------------------|
-------------------|---------2----3--2-----|---------2----3--2-----|
-------------------|--------------------2--|--------------------2--|
-------------------|-----------------------|--4--------------------|
----------------0--|--2--------------------|--2--------------------|
-------------------|-----------------------|-----------------------|


                                                 Bm                
---------2----3--2-----|----------------------|--2----------------|
--------------------3--|--3----2----0---------|--3----------------|
-----------------------|-------------------2--|--4----------------|
-----------------------|----------------------|-------------------|
-----------------------|----------------------|-------------------|
--0--------------------|----------------------|-------------------|


                     G                   F#m                 Bm                
------------------|--3----------------|--2----------------|--2----------------|
------------------|--3----------------|--2----------------|--3----------------|
------------------|--4----------------|--2----------------|--4----------------|
------------------|-------------------|-------------------|-------------------|
------------------|-------------------|-------------------|-------------------|
------------------|-------------------|-------------------|-------------------|


                     G                   F#m                                  
------------------|--3----------------|--2----------------|------------------|
------------------|--3----------------|--2----------------|------------------|
------------------|--4----------------|--2----------------|------------------|
------------------|-------------------|-------------------|------------------|
------------------|-------------------|-------------------|------------------|
------------------|-------------------|-------------------|------------------|


                                                             
------------------|---------------------|---------------------|
------------------|--0---0-------0------|--0---0-------0------|
------------------|---------------------|---------------------|
------------------|---------------------|---------------------|
------------------|--2---2-------2------|--2---2-------2------|
------------------|---------------------|---------------------|


                                              Bm                        
--0---0-------0------|--2---2-------2------|--2---2--2-2-2-2--2---2-2--|
---------------------|---------------------|--3---3--3-3-3-3--3---3-3--|
---------------------|---------------------|--4---4--4-4-4-4--4---4-4--|
--2---2-------2------|--4---4-------4------|--4---4--4---4----4-----4--|
---------------------|---------------------|--2---2--2---2----2-----2--|
---------------------|---------------------|---------------------------|



Текст, аккорды и табулатура для песни "If You Had My Love", исполняет "Lopez Jennifer".
Используемые в песне аккорды можно найти в разделе Как брать аккорды. Аккорды для шестиструнной гитары. Другие песни можно найти на нашем сайте, воспользовавшись алфавитным указателем вверху страницы.


 
Ошибка в тексте? Выделите ошибку и нажмите Ctrl+Enter