Artist: Long Beach Dub Allstars
Song: Trailer Ras
Album: Right Back
Tabbed By: Mike ([email protected])

This is just the intro, that's all I've gotten so far. I've been tryin
to find this song on the net forever but haven't been able to so I sat
down and figured it out myself. Corrections and comments are welcome,
and if anyone knows the rest of the song please post it. Listen to the
song for timing.

standard tuning
b= bend note
/= slide up
= slide down
h= hammer-on
p= pull-off

e)-----------------------------------------------------------------------------------|
B)-----------------------------------------------------------------------------------|
G)-----------------------------------------------------------------------------------|
D)-----------------------------------------------------------------------------------|
A)--16--19--16b--19--16b---------14--17--14b--17--14b--------------------------------|
E)-----------------------------------------------------------------------------------|

e)-----------------------------------------------------------------------------------|
B)-----------------------------------------------------------------------------------|
G)-----------------------------------------------------------------------------------|
D)--12--15--12b--15--12b--------10--13--10b--13--10b---------------------------------|
A)-----------------------------------------------------------------------------------|
E)-----------------------------------------------------------------------------------|

e)-----------------------------------------------------------------------------------|
B)-----------------------------------------------------------------------------------|
G)-----------------------------------------------------------------------------------|
D)----------------------------------------3/5--5--5/7-----5h7--5--0------------------|
A)------------------------35--5--53-------------------------------------5h7--------|
E)---3/5--5--53---------------------------------------------------------------------|
					* not quite sure of this part *
e)-----------------------------------------------------------------------------------|
B)-----------------------------------------------------------------------------------|
G)------------------------------------------5h7-7-7-7-7-7/109--*-9--7h9-------------|
D)-----------7--5--5--0------------5h7-----------------------------------------------|
A)---7p5-------------------5h7-------------------------------------------------------|
E)-----------------------------------------------------------------------------------|

e)----------------------------------------------------------------------------------|
B)----------------------------------------------------------------------------------|
G)---7---------7~-------------------------------------------------------------------|
D)-------7h9------------72/5---------5--4--5-4--5-4-5-4--2-------------------------|
A)--------------------------------5-------------------------------------------------|
E)----------------------------------------------------------------------------------|

Lyrics
How many of you people are white trash?

way back in junior high I could of swore my name was white boy (what's up white boy?)
there was all types of ill shit going down
between gangsters, thugs and cholos
heshians, Asians or insane usos
well I've got friends black white yellow red and brown
we would sit there by the river
and listen to the freeway
just sit and smoke and drink with all my crew (ohh)
well now when I look back
over blue skies and smoke stacks
it makes me laugh to think I've made it through
and I hear the birds sing
when the sun brings out the morning
and there's everything or nothing I can do
when I break into my stash
I remember trailer ras
and there's everything or nothing I can do
we would sit there by the river
and listen to the freeway
and do the things you're not supposed to do
how to the jump the fence was the first thing I learned in high school
and I knew this girl that lived just down the street
on the phone the whole day scoring
and when hickeys got boring
the neighborhood was filled with pounds of tweak
we would sit in the recliner and listen to the TV
and do the things you're not supposed to do
well now when I look back or I see teenagers mack
well I think about those days I spent with you
and I hear the birds sing
when the sun brings out the morning
and there's everything or nothing I can do
when I break into my stash
I remember trailer ras
and there's everything for me to do


Well there's the intro and the lyrics. If anyone knows the chords and the
little solo please post them. Don't try to base the timing on this cuz
it won't work, listen to the song and you'll get it. Enjoy.
Any corrections, questions or comments are welcome. My email is up above.
							Lata


Текст, аккорды и табулатура для песни "Trailer Ras", исполняет "Long Beach Dub Allstars".
Используемые в песне аккорды можно найти в разделе Как брать аккорды. Аккорды для шестиструнной гитары. Другие песни можно найти на нашем сайте, воспользовавшись алфавитным указателем вверху страницы.


 
Ошибка в тексте? Выделите ошибку и нажмите Ctrl+Enter