/TIME WAIT'S FOR NO ONE - LONG ADDICTION - GUITAR TAB
/Written By - Paul Curtis-Harper
/Music By - Long Addiction

  VERSE - 1 AND INTRO

e----0-0----0-0----3-3----0-0----3-3----0-0----0-0-0-0--|
b----0-0----0-0----3-3----2-2----3-3----2-2----0-0-0-0--|
g----2-2----1-1----0-0----2-2----0-0----2-2----1-1-1-1--|
d----2-2----2-2----0-0----2-2----0-0----2-2----2-2-2-2--|
a----2-2----2-2----2-2----0-0----2-2----0-0----2-2-2-2--|
E----0-0----0-0----3-3-----------3-2-----------0-0-0-0--| x2

 Esus4           E   G                A
	And you know, time wait's for no one
 G                      A           E
	Time wait's for nobody at all
	And when you know, life is confusion
	Mortal decision's on your own


  CHORUS

e----3-3----0-0----0-0-0-0----3-3----0-0----0-0-0-0-----|
b----3-3----2-2----0-0-0-0----3-3----2-2----0-0-0-0-----|
g----0-0----2-2----1-1-1-1----0-0----2-2----1-1-1-1-----|
d----0-0----2-2----2-2-2-2----0-0----2-2----2-2-2-2-----|
a----2-2----0-0----2-2-2-2----2-2----0-0----2-2-2-2-----|
E----3-3-----------0-0-0-0----3-3-----------0-0-0-0-----| x2

  G            A                 E
	We all need something to go on
  G                 A                 E
	Sometime to try and find your lies
  G            A                 E
	We all need something to work on
           G                        A                 E
  Like the latter day skies and the wannabies getting high

  INTRO

  VERSE - 2
	Verse 2 is the same chord's as verse one but sung like this;

  Esus4         E    G                A
	And you know, time wait's for no one
  G             A                  E
	Yeah it wait's for no one at all
  Esus4              E    G           A
	And when you know, life is confusion
  G              A                E
	Mortal decision's on your own

  CHORUS

  INTRO

  CHORUS x2

  INTRO x2


Текст, аккорды и табулатура для песни "Time Waits For No One", исполняет "Long Addiction".
Используемые в песне аккорды можно найти в разделе Как брать аккорды. Аккорды для шестиструнной гитары. Другие песни можно найти на нашем сайте, воспользовавшись алфавитным указателем вверху страницы.


 
Ошибка в тексте? Выделите ошибку и нажмите Ctrl+Enter