| - Full stop
* - Palm mute
( - Second guitar thing start [Not included in the end of the song]
) - Second guitar thing end   [Not included in the end of the song]
b - Bend
x - Mute or Dont play
/ - Slide up
 - Slide down
~ - Vibrate
h - Hammer

Originaly made by: Xenoicity
Edited by: David

The intro is probably easyer if you just listen to it. 
I did at first but found out that I wasn't playing it right,
so I tabbed down what I think is correct.
I think that this tab might be fairly accuret. 

 Intro:         
e-19------------------------------------------------------------------
B---19-19-19---------5/-7--7--7-7-7--7--7/-9--9-9-7--7--7-7-7--7--7-
G--------------------x--x--x--x-x-x--x--x--x--x-x--x--x--x-x-x--x--x--
D--------------------2/-4--4--4-4-4--4--4/-6--6-6-4--4--4-4-4--4--4-
A---------------------------------------------------------------------
E---------------------------------------------------------------------

e-------------------------------------------------------------
B-5/-7--7--7-7-7--7--7/-9--9-9-7--7--7-7-7/-12--12-12--12-12-
G-x--x--x--x-x-x--x--x--x--x-x--x--x--x-x-x--x---x--x---x--x--
D-2/-4--4--4-4-4--4--4/-6--6-6-4--4--4-4-4/-9---9--9---9--9--
A-------------------------------------------------------------
E-------------------------------------------------------------

 Verse:
e---------------------------------------------------------
B---------------------------------------------------------
G-------------------44444444------------------------------
D-66666666-22222222-44444444-44444444---66666666-22222222-
A-66666666-22222222-22222222-44444444---66666666-22222222-
E-44444444-00000000----------22222222---44444444-00000000-
  ******** ******** ******** ********   ******** ******** 

e--(19---------19--------)-----------
B--(--19-19-19---19-19-19)7--7--5--5-
G-44444444----------------x--x--x--x-
D-44444444----------------4--4--2--2-
A-22222222---------------------------
E------------------------------------
  ********				     

e-----------------------------------------------------------------------
B-----------------------------------------------------------------------
G-------------------44444444-----------6-6-6-6-6-6-6-6-9-9-9-9-11-11-11-
D-66666666-22222222-44444444-44444444--6-6-6-6-6-6-6-6-9-9-9-9-11-11-11-
A-66666666-22222222-22222222-44444444--4-4-4-4-4-4-4-4-7-7-7-7-9--9--9--
E-44444444-00000000----------22222222-----------------------------------
  ******** ******** ******** ********    

 Chorus:
e------------------------------|-----------------------------
B------------------------------|-----------------------------
G-44-444--------66-666-99-999--|--4-444--------66-666-99-999-
D-44-444-44-444-66-666-99-999--|--4-444-44-444-66-666-99-999-
A-22-222-44-444-44-444-77-777--|--2-222-44-444-44-444-77-777-
E--------22-222----------------|--------22-222---------------

e-----------------------------------------------------------
B-----------------------------------------------------------
G-13--13-13-13--13--11--11-11-11--11--9--9-9-9--9--8--8-8-8-
D-13--13-13-13--13--11--11-11-11--11--9--9-9-9--9--8--8-8-8-
A-11--11-11-13--11--9---9--9--9---9---7--7-7-7--7--6--6-6-6-
E-----------------------------------------------------------

e-----------------
B-----------------
G-6--6-6-6--9-9-9-
D-6--6-6-6--9-9-9-
A-4--4-4-4--7-7-7-
E-----------------


e-------------------------------------------------------------
B-5/-7--7--7-7-7--7--7/-9--9-9-7--7--7-7-7/-12--12-12--12-12-
G-x--x--x--x-x-x--x--x--x--x-x--x--x--x-x-x--x---x---x--x--x--
D-2/-4--4--4-4-4--4--4/-6--6-6-4--4--4-4-4/-9---9--9---9--9--
A-------------------------------------------------------------
E-------------------------------------------------------------

 Verse:
e---------------------------------------------------------
B---------------------------------------------------------
G-------------------44444444------------------------------
D-66666666-22222222-44444444-44444444---66666666-22222222-
A-66666666-22222222-22222222-44444444---66666666-22222222-
E-44444444-00000000----------22222222---44444444-00000000-
  ******** ******** ******** ********   ******** ******** 

e--(19---------19--------)-----------
B--(--19-19-19---19-19-19)7--7--5--5-
G-44444444----------------x--x--x--x-
D-44444444----------------4--4--2--2-
A-22222222---------------------------
E------------------------------------
  ********				     

e-----------------------------------------------------------------------
B-----------------------------------------------------------------------
G-------------------44444444-----------6-6-6-6-6-6-6-6-9-9-9-9-11-11-11-
D-66666666-22222222-44444444-44444444--6-6-6-6-6-6-6-6-9-9-9-9-11-11-11-
A-66666666-22222222-22222222-44444444--4-4-4-4-4-4-4-4-7-7-7-7-9--9--9--
E-44444444-00000000----------22222222-----------------------------------
  ******** ******** ******** ********  

 Chorus:
e------------------------------|-----------------------------
B------------------------------|-----------------------------
G-44-444--------66-666-99-999--|--4-444--------66-666-99-999-
D-44-444-44-444-66-666-99-999--|--4-444-44-444-66-666-99-999-
A-22-222-44-444-44-444-77-777--|--2-222-44-444-44-444-77-777-
E--------22-222----------------|--------22-222---------------

e-----------------------------------------------------------
B-----------------------------------------------------------
G-13--13-13-13--13--11--11-11-11--11--9--9-9-9--9--8--8-8-8-
D-13--13-13-13--13--11--11-11-11--11--9--9-9-9--9--8--8-8-8-
A-11--11-11-13--11--9---9--9--9---9---7--7-7-7--7--6--6-6-6-
E-----------------------------------------------------------

e-----------------
B-----------------
G-6--6-6-6--9-9-9-
D-6--6-6-6--9-9-9-
A-4--4-4-4--7-7-7-
E-----------------

 Solo: 
e-7/14~-----14-----14-14h16-14-12--11-12-11-12-11------19~b21~--------
B------12h14--12h14--------------------------------12--------19-16-18-
G---------------------------------------------------------------------
D---------------------------------------------------------------------
A---------------------------------------------------------------------
E---------------------------------------------------------------------

e-16b18b16-14--191919-181818-161616-141414-121212-11-11-11-9-9-9-7-7-7-
B----------------------------------------------------------------------
G----------------------------------------------------------------------
D----------------------------------------------------------------------
A----------------------------------------------------------------------
E----------------------------------------------------------------------
       
e-7-9-7-9-10-4444-6666666-7777777-99999999-21~b19h21~-
B-----------------------------------------------------
G-----------------------------------------------------
D-----------------------------------------------------
A-----------------------------------------------------
E-----------------------------------------------------

 Chorus: (Twice)
e-----------------------------------|----------------------------------
B-----------------------------------|----------------------------------
G-66-666--------88-888-1111-111111--|--6-666--------88-888-1111-111111-
D-66-666-66-666-88-888-1111-111111--|--6-666-66-666-88-888-1111-111111-
A-44-444-66-666-66-666-9-9--9-9-9---|--4-444-66-666-66-666-9-9--9-9-9--
E--------44-444---------------------|--------44-444--------------------
 (Once)
e------------------------------------------------------------------------
B------------------------------------------------------------------------
G-15--15-15-15--15--13--13-13-13--13--11--11-11-11--11--10--10-10-10--10-
D-15--15-15-15--15--13--13-13-13--13--11--11-11-11--11--10--10-10-10--10-
A-12--12-12-12--15--11--11-11-11--11--9---9--9--9---9---8---8--8--8---8--
E------------------------------------------------------------------------

e---------------------
B---------------------
G-8--8-8-8--11--11-11-
D-8--8-8-8--11--11-11-
A-6--6-6-6--9---9--9--
E---------------------

 Ending: [Here the first part of the Solo is replayed two frets up]
e------------------------------------------------------------------
B------------------------------------------------------------------
G-66-666--------88-888-1111-111111--66-----------------------------
D-66-666-66-666-88-888-1111-111111--66-----------------------------
A-44-444-66-666-66-666-9-9--9-9-9---44-----------------------------
E--------44-444----------------------------------------------------

[email protected]


Текст, аккорды и табулатура для песни "Ultimate", исполняет "Lohan Lindsay".
Используемые в песне аккорды можно найти в разделе Как брать аккорды. Аккорды для шестиструнной гитары. Другие песни можно найти на нашем сайте, воспользовавшись алфавитным указателем вверху страницы.


 
Ошибка в тексте? Выделите ошибку и нажмите Ctrl+Enter