Alex Lloyd - Amazing
Tabbed By: Tristan Hoogland
EMail: [email protected]

Now about 95% of this is correct i can't exactly get some of the
fingering right but anyway here it is amazing by alex lloyd.

Verse
e|----------------------------2----------------------------|
B|----2-----------------------3----------------------------|
G|----2-----------------------2----------------------------|
D|----2----------------------------------------------------|
A|---------------------------------------------------------|
E|---------------------------------------------------------|
  Now all you wanna do is rock
  But you don't wanna bear the sock no more
  When you swear it clears your eyes
  You lay the feelings that you have denied


Pre-Chorus
e|----------------------------------------------------------|
B|---5------------5---------3----------2--------------------|
G|---6------------6---------4----------2--------------------|
D|---7------------6---------5----------4--------------------|
A|---7------------7---------5----------4--------------------|
E|----------------------------------------------------------|
 You never refuse at your door
 Just like a hundred times before
 But you dont wanna lead the end


Chorus (play twice, on second time hold the D)
e|----------------------------------------------------------|
B|----2-------------------------7---------------------------|
G|----2-------1-------2---------7---------------------------|
D|----2-------2-------4---------7---------------------------|
A|------------2-------4---------5---------------------------|
E|--------------------2-------------------------------------|
 Cause you were amazing, And we did amazing things
 I wouldn't change it, Cause you were amazing


Verse 2
e|----------------------------2----------------------------|
B|----2-----------------------3----------------------------|
G|----2-----------------------2----------------------------|
D|----2----------------------------------------------------|
A|---------------------------------------------------------|
E|---------------------------------------------------------|
  You're building bridges in your mind
  Your eagerness now is on the line
  The plastic mountain at your feet
  Divided streets now as you look to find the seed


Pre-Chorus
e|----------------------------------------------------------|
B|---5------------5---------3----------2--------------------|
G|---6------------6---------4----------2--------------------|
D|---7------------6---------5----------4--------------------|
A|---7------------7---------5----------4--------------------|
E|----------------------------------------------------------|
 You never refuse at your door
 Just like a hundred times before
 But you dont wanna lead the end


Chorus (play twice, on second time hold the D)
e|----------------------------------------------------------|
B|----2-------------------------7---------------------------|
G|----2-------1-------2---------7---------------------------|
D|----2-------2-------4---------7---------------------------|
A|------------2-------4---------5---------------------------|
E|--------------------2-------------------------------------|
 Cause you were amazing, And we did amazing things
 I wouldn't change it, Cause you were amazing


Bridge (The A and the D are the lead in chords and the main bridge 
chords are Bm and E. On the last line of the bridge, after the Bm 
you slide up to a D and then to an E)

e|------2---------------------------------------------------|
B|--2---3------3-----------3----------3----7----------------|
G|--2---2------4-----1-----4----1-----4----7----1-----------|
D|--2----------4-----2-----4----2-----4----7----2-----------|
A|-------------2-----2-----2----2-----2----5----2-----------|
E|----------------------------------------------------------|
  But I really didn't wanna bitch today
  And I really didn't want to end this way
  But the things that didn't find us
  Are the things we put behind us
  today


Chorus (play twice, on second time hold the D)
e|----------------------------------------------------------|
B|----2-------------------------7---------------------------|
G|----2-------1-------2---------7---------------------------|
D|----2-------2-------4---------7---------------------------|
A|------------2-------4---------5---------------------------|
E|--------------------2-------------------------------------|
 Cause you were amazing, And we did amazing things
 I wouldn't change it, Cause you were amazing

THE END


Текст, аккорды и табулатура для песни "Amazing", исполняет "Lloyd Alex".
Используемые в песне аккорды можно найти в разделе Как брать аккорды. Аккорды для шестиструнной гитары. Другие песни можно найти на нашем сайте, воспользовавшись алфавитным указателем вверху страницы.


Слушать онлайн Amazing


Alex LloydAmazing на Яндекс.Музыке


 
Ошибка в тексте? Выделите ошибку и нажмите Ctrl+Enter