Prisonor Of Society.
Tabbed by Michael Fryar

~=vibrado
Intro
e---------------------------------------|
b---------------------------------------|
g-9-9---------------------2-0-2---------|
d-9-9---6-6---7-7---8-8---2-0-2---------|     (x4)
a-7-7---6-6---7-7---8-8-----------------|
e-----0-4-4-0-5-5-0-6-6-0---------------|

Owen does A-A-C-C-D-D-E-E-A-A-C-C-D-D When he gets to the next set of E`s do
a slide on the 17th fret ( e ) down to the 5th fret

2nd Intro-  A-A-C-C-D-D-E-E-A-A-C-C-D-D-E-E,

Verse: A-C-D-E.(repeat)

Chorus: A-C-F-G-A   D-Bb-F-G-A

Intro twice,
Verse,
Chorus,
Bridge:
e-------------------------------------------------------------------------------------|
b-------------------------------------------------------------------------------------|
g----------------------------------7-8-8---------5----------------9-10-9-9-9-9-9------|
d-7-8-7---------5--7-8-7---------5-7-8-8-----5-7----7-7---------5-9-10-9-9-9-9-9------|
a-7-8-7-----5-7----7-8-7-----5-7---5-6-5-5-8--------7-7-----5-7---7-8--7-7-7-7-7~-----|
e-5-6-5-5-8--------5-6-5-5-8------------------------5-5-5-8---------------------------|

Guitar Solo: ( From * is where Nathan Smith was my help,Visit his page,http://alltorndown.cjb.net)

e----------------------5-5-6-6-5-5-4-4-5-5-6-6-7-7-8-*-----------------------------------------------------------------------------------------------------------|
b---5-7~7~7-7-5--------5-5-6-6-5-5-4-4-5-5-6-6-7-7-8-*------------10--------------------10-------------------10--------------------10----------------------------|
g-7-5-7~7~7-7-5--------5-5-6-6-5-5-4-4-5-5-6-6-7-7-8-*----12p10---10h11p10-----12p10----10h11p10----12p10----10h11p10----12p10-----11----------------------------|
d-7-------------7------------------------------------*-15------12----------12--------12----------12-------12----------12-------12-----12-12-12-12-------9hy10p9--|
a----------------------------------------------------*--------------------------------------------------------------------------------------------10p12----------|
e----------------------------------------------------*-----------------------------------------------------------------------------------------------------------|


e------------------------------------------------12-15-14-12--|
b---------------------------------------12-13-15--------------|
g------------9h10p9----9-10-12-9-11/14------------------------|
d----9-10-12--------12----------------------------------------|
a-12----------------------------------------------------------|
e-------------------------------------------------------------|

		   all () play 7 times

e-----------------------------------------------------------------------(12)-(13)--(15)--17-17-17-17--(0)-|
b-15-14-13-12-----------------------------------------------------------------------------------------(0)-|
g-------------14---(9)-(10)--(12)--(14)--(14)--(15)--(17)-19-19-19-19--(9)--(10)--(12)--14-14-14-14--(0)-|
d-----------------------------------------------------------------------------------------------------(2)-|
a-------------------(7)-(8)---(10)--(12)--(12)--(13)--(15)-17-17-17-17--------------------------------(2)-|
e-----------------------------------------------------------------------------------------------------(0)-|

( slide on e string (17th to 5th)

Then do the chorus ( listen to song cause its played in a different style.)

And end by stumming a high E chord.


Текст, аккорды и табулатура для песни "Prisoner Of Society", исполняет "Living End".
Используемые в песне аккорды можно найти в разделе Как брать аккорды. Аккорды для шестиструнной гитары. Другие песни можно найти на нашем сайте, воспользовавшись алфавитным указателем вверху страницы.


 
Ошибка в тексте? Выделите ошибку и нажмите Ctrl+Enter