#----------------------------------PLEASE NOTE--------------------------------#
#This file is the author's own work and represents their interpretation of the#
#song. You may only use this file for private study, scholarship, or research.#
#-----------------------------------------------------------------------------#
#-- File created with Instab - http://www.pconline.com/~smcarey/instab.html --#
#-----------------------------------------------------------------------------#

Author/Artist: The Living End
Title: Prisoner of Society
Album: The Living End
Transcribed by: Glenn Pfeiffer
Email: [email protected]

this song was really hard to tab out

the chords r all right and the solo is pretty much perfict but improvise

its just a matter of sorting out the order and the veraiations ie the last chrou
s the chords r the same just different rythem

standard tuning

key:
PM_=palm mute
h=hammer on
=slide
p=pulloff
b=bend

------------------------------|-------------------------------|---------------|
------------------------------|-------------------------------|---------------|
-9--------------------2-0-2-0-|-9-------------------2-0-2-0-2-|---------------|
-9-----6-----7-----8--2-0-2-0-|-9-----6-----7-----8-2-0-2-0-2-|---------------|
-7-----6-----7-----8--0---0---|-7-----6-----7-----8-0---0---0-|---------------|
---0-0-4-0-0-5-0-0-6----------|---0-0-4-0-0-5-0-0-6-----------|---------------|
 intro 1:x2

--------------------------------|--------------------------------|------------|
--------------------------------|--------------------------------|------------|
-2--2-2--5--5-5--7--7-7--9--9-9-|-2--2-2--5--5-5--7--7-7--9--9-9-|------------|
-2--2-2--5--5-5--7--7-7--9--9-9-|-2--2-2--5--5-5--7--7-7--9--9-9-|------------|
-0--0-0--3--3-3--5--5-5--7--7-7-|-0--0-0--3--3-3--5--5-5--7--7-7-|------------|
--------------------------------|--------------------------------|------------|
 intro 2:

---------------------------------|---------------------------------|----------|
---------------------------------|---------------------------------|----------|
-2-2-2-2-2-2-2-2-2-2-2-2-2-2-2-2-|-5-5-5-5-5-5-5-5-7-7-7-7-7-7-7-7-|----------|
-2-2-2-2-2-2-2-2-2-2-2-2-2-2-2-2-|-5-5-5-5-5-5-5-5-7-7-7-7-7-7-7-7-|----------|
-0-0-0-0-0-0-0-0-0-0-0-0-0-0-0-0-|-3-3-3-3-3-3-3-3-5-5-5-5-5-5-5-5-|----------|
---------------------------------|---------------------------------|----------|
 V:PM___   _____   _____________x2   _____________   _____

-----------------------------------|------------------------------------------|
-----------------------------------|------------------------------------------|
-2-2-2-2-2-2-2-2-2-2-2-------------|------------------------------------------|
-2-2-2-2-2-2-2-2-2-2-2-3h2h0-------|------------------------------------------|
-0-0-0-0-0-0-0-0-0-0-0-------3h2h0-|------------------------------------------|
-----------------------------------|------------------------------------------|
   _____   _____   ___

---------------------------------|---------------------------------|----------|
---------------------------------|---------------------------------|----------|
-2---2-2-2---2---2-2-2-2-2-2-2-2-|-5---5-5-5---5---5-5-5-5-5-5-5-5-|----------|
-2---2-2-2---2---2-2-2-2-2-2-2-2-|-5---5-5-5---5---5-5-5-5-5-5-5-5-|----------|
-0---0-0-0---0---0-0-0-0-0-0-0-0-|-3---3-3-3---3---3-3-3-3-3-3-3-3-|----------|
---------------------------------|---------------------------------|----------|
 pre-chrous

---------------------------------|---------------------------------|----------|
---------------------------------|---------------------------------|----------|
---------------------------------|---------------------------------|----------|
-3---3-3-3---3---3-3-3-3-3-3-3-3-|-5---5-5-5---7---7-7-7-7-7-7-7-7-|----------|
-3---3-3-3---3---3-3-3-3-3-3-3-3-|-5---5-5-5---7---7-7-7-7-7-7-7-7-|----------|
-1---1-1-1---1---1-1-1-1-1-1-1-1-|-3---3-3-3---5---5-5-5-5-5-5-5-5-|----------|


---------------------------------|---------------------------------|----------|
---------------------------------|---------------------------------|----------|
-7---7-7-7---7-7-7-7-7-7-7-7-7-7-|-7---7-----7---7-7-7-7-7-7-7-7-7/|----------|
-7---7-7-7---7-7-7-7-7-7-7-7-7-7-|-7---7-----7---7-7-7-7-7-7-7-7-7/|----------|
-5---5-5-5---5-5-5-5-5-5-5-5-5-5-|-5---5-----5---5-5-5-5-5-5-5-5-5/|----------|
---------------------------------|---------------------------------|----------|
 chrous

---------------------------------|---------------------------------|----------|
---------------------------------|---------------------------------|----------|
-3---3-3-3---3-3-3-3-3-3-3-3-3-3-|-3---3---------------------------|----------|
-3---3-3-3---3-3-3-3-3-3-3-3-3-3-|-3---3-------------------------3-|----------|
-1---1-1-1---1-1-1-1-1-1-1-1-1-1-|-1---1---3---1---1---0---------3-|----------|
---------------------------------|-------------------------3---1-1-|----------|


---------------------------------|---------------------------------|----------|
---------------------------------|---------------------------------|----------|
---------------------------------|---------------------------------|----------|
-3---3-3-3---3-3-3-3-3-3-3-3-3-3-|-3---3-----3---3-3-3-3-3-3-3-3-3-|----------|
-3---3-3-3---3-3-3-3-3-3-3-3-3-3-|-3---3-----3---3-3-3-3-3-3-3-3-3-|----------|
-1---1-1-1---1-1-1-1-1-1-1-1-1-1-|-1---1-----1---1-1-1-1-1-1-1-1-1-|----------|


---------------------------------|---------------------------------|----------|
---------------------------------|---------------------------------|----------|
-9----9/10--10---9----9/10--10---|-9----9/10--10----9-----9/10--10-|----------|
-9----9/10--10---9----9/10--10---|-9----9/10--10----9-----9/10--10-|----------|
-7----7/8---8----7----7/8---8----|-7----7/8---8-----7-----7/8---8--|----------|
---------------------------------|---------------------------------|----------|


---------------|-------------------------|---------------|--------------------|
---------------|-------------------------|---------------|--------------------|
-2--2-0-3--3-0-|-2-2-2-2-----------------|-2--2-0-3--3-0-|--------------------|
-2--2-0-3--3-0-|-2-2-2-2-------0h2p0-----|-2--2-0-3--3-0-|--------------------|
-0--0---0--0---|-0-0-0-0-0h2h3-------3p0-|-0--0---0--0---|--------------------|
---------------|-------------------------|---------------|--------------------|
 solo:

-------------------------|---------------|-------------------------|----------|
-------------------------|-3--3-3-4--4-4-|-3-3-3-3-----------------|----------|
-2-2-2-2-----------------|-2--2-2-3--3-3-|-2-2-2-2-------0h2p0-----|----------|
-2-2-2-2-------0h2p0-----|-0--0-0-0--0-0-|-0-0-0-0-0h2p0-------3p0-|----------|
-0-0-0-0-0h2h3-------3p0-|---------------|-------------------------|----------|
-------------------------|---------------|-------------------------|----------|


---------------|-------------------------|---0------0---|----------|----------|
---------------|-------------------------|-----0------0-|----------|----------|
-2--2-0-3--3-0-|-2-2-2-2-----------------|-----1------2-|----------|----------|
-2--2-0-3--3-0-|-2-2-2-2-------0h2p0-----|-2------3-----|-2--------|----------|
-0--0---0--0---|-0-0-0-0-0h2h3-------3p0-|-2------3-----|-2--------|----------|
---------------|-------------------------|-0------0-----|-0--------|----------|


-----0-0----0-0----0-0-|-0---0-0-------------|---5-5---------------|----------|
-----0-0----0-0----0-0-|-0---0-0-------------|---5-5---------------|----------|
-2b------2b-----2b-----|-2b------2-2p0-2-0-0-|-------7b---7b-7p5-7-|----------|
-----------------------|---------------------|-7-----7b---7b-7p5-7-|----------|
-----------------------|---------------------|---------------------|----------|
-----------------------|---------------------|---------------------|----------|


-----------------------|---------------------------------|--------------------|
-5b--------------------|------10-------11------10------9-|--------------------|
-5b---7p5-7--------7---|----9-------10-------9-------8---|--------------------|
-----------------------|-11------12-------11------10-----|--------------------|
-----------------------|---------------------------------|--------------------|
-----------------------|---------------------------------|--------------------|


------------------------------------|-----------------------------------------|
------11-------12-------13-------14-|------------------10---------------------|
----9-------10-------11-------12----|---------12p10----10h11p10---------------|
-11------12-------13-------14-------|-14/15---------12----------12------------|
------------------------------------|-----------------------------------------|
------------------------------------|-----------------------------------------|


----------------------|-------------------------------------------|-----------|
----------------------|-------------------------------------------|-----------|
----------10----------|----------10-------------------10----------|-----------|
-12p10----10h11p10----|-12p10----10h11p10----12p10----10h11p10----|-----------|
-------12----------12-|-------12----------12-------12----------12-|-----------|
----------------------|-------------------------------------------|-----------|


------------------------------------------------|-------------12-15-14-12-----|
------------------------------------------------|----12-13-15-----------------|
-------------------------9h10p9----9h10h12-9-11-|-14--------------------------|
-------9h10p9----9h10h12--------12--------------|-----------------------------|
-10h12--------12--------------------------------|-----------------------------|
------------------------------------------------|-----------------------------|


---------------------|----------------------|-----------------------------|---|
-15-14-13-12---------|----------------------|-----------------------------|---|
-------------14-14/-|-9---9-9-9/10--101010/|-12---12-12-12/14---14-14-14-|---|
---------------------|----------------------|-----------------------------|---|
---------------------|-7---7-7-7/8---8-8-8-/|-10---10-10-10/12---12-12-12-|---|
---------------------|----------------------|-----------------------------|---|


-----------------------------|-----------------------------|------------------|
-----------------------------|-----------------------------|------------------|
-14---14-14-14/15---15-15-15/|-17---17-17-17/19---19-19-19/|------------------|
-----------------------------|-----------------------------|------------------|
-12---12-12-12/13---13-13-13/|-15---15-15-15/17---17-17-17/|------------------|
-----------------------------|-----------------------------|------------------|


-12---12-12-12/13---13-13-13/|15---15-15-15/17----17-17-17/|------------------|
-----------------------------|-----------------------------|------------------|
-9----9--9--9-/10---10-10-10/|12---12-12-12/14----14-14-14/|------------------|
-----------------------------|-----------------------------|------------------|
-----------------------------|-----------------------------|------------------|
-----------------------------|-----------------------------|------------------|


-----------------|-----------------|------------------------------------------|
-----------------|-----------------|------------------------------------------|
-9---9---9---9---|-9---9---9---9---|------------------------------------------|
-9---9---9---9---|-9---9---9---9---|------------------------------------------|
-7---7---7---7---|-7---7---7---7---|------------------------------------------|
-----------------|-----------------|------------------------------------------|


-5-----------5--5--5----|-------------------|---------------------------------|
-5-------5---5--5--5--5-|-------------------|---------------------------------|
------7b-5------------5-|-7b-7-5------------|---------------------------------|
------------------------|--------7-7--------|---------------------------------|
------------------------|--------------3--0-|---------------------------------|
------------------------|-------------------|---------------------------------|
 the fill after the last verse


Текст, аккорды и табулатура для песни "Prisoner Of Society", исполняет "Living End".
Используемые в песне аккорды можно найти в разделе Как брать аккорды. Аккорды для шестиструнной гитары. Другие песни можно найти на нашем сайте, воспользовавшись алфавитным указателем вверху страницы.


 
Ошибка в тексте? Выделите ошибку и нажмите Ctrl+Enter