Hellbound  - The Living End,
   Tabbed by Mick Fryar,  [email protected]

Ok,I tried my best with this,it took me about a week to
figure what Ive got of this song out,
Im really sure that every note here is correct,I promise,
Any corrections just send em to me ok,But I want you to just
remember,Hey Im only 15! Ive tried my best,so here is what Ive
done.

Oh yeah just one other thing with the intro I cant figure
out the chords,I just a play a single not at a time.

Intro: (These are just notes remember)They might be diminished 7`s or something,
 D - C# - C - B#(x2)
Second bit of intro:(played around the middle of the neck.)
(Chords) E(power chord) - G(power chord) - Fm(bar chord) - Em(bar chord)(x4)

1st Riff:
e----------------------------------|
b----------------------1-1-1-------|
g-------0-4-4-4----2-4---------2---|
d-2-2-2----------------------3-----| (x2)
a----------------------------------|
e----------------------------------|

2nd Riff:
e-----------3-----------------------------|
b---------3---3~-4-3~-----3-4-4-4-4--5~~--|
g-------3---------------5-----------5-----|
d-5-5-5-----------------------------------| (x2)
a-----------------------------------------|
e-----------------------------------------|

Do first half of riff 1 then do it all again(listen to it).
2nd intro bit (x4)
Then theses chords are played (only one note at a time though)
Em(bar chord) Gm(bar chord) (x4)

Then solo:
Ive only got bits and pieces of the solo,
e-------------------------------------7-10-12-|
b---------0--0--0---0----3---3-5-9-^7-7-------|
g-^--------------------4---4------------------|
d-4-u-4-4--2--0---4--5------------------------|
a---------------------------------------------|
e---------------------------------------------|

e-7-10-12-7-10-12-7-10-12-7-10-7-10--^-----------------------------------------------------|
b-----------------------------------15-15-13-12-13-12h13-10-10h1210-7p10p7-6h8p6-5h7p5-5/--|
g------------------------------------------------------------------------------------------| Then you play more stuff that I cant work out,then
d------------------------------------------------------------------------------------------|
a------------------------------------------------------------------------------------------|
e-------------------------------------------- ---------------------------------------------|
The very fast bit of the solo goes,
e------------------------------------------------------------------------------|
b------------------------------------------------------------------------------|
g------------------------------------------------9999-10-10-10-10-12-12-12-12--|
d-222222-444-555-7777-9999-7777-9999-10-10-10-10-------------------------------|
a------------------------------------------------------------------------------|
e------------------------------------------------------------------------------|

e-----------------------------------------------------------------|
b-10-12-14-14-14/12-12/8-8/-4-/-2-2-3-4-3-2-0---------------------|
g-------------------------------3-4-5-6-------2-0-3h5-0-3h5-0-3h5-|
d-----------------------------------------------------------------|
a-----------------------------------------------------------------|
e-----------------------------------------------------------------|
  ^ ^ ^                                    ^
e-5-5-5--------------------------------12-14-14-12h-14p-12-14-12-9-10-13p0-11p0-12p0-11p0-9p0-9-7--|...???
b--------------------------------------------------------------------------------------------------|
g------------------------------0-2-4-5-------------------------------------------------------------| Thats all Ive worked out of the solo,I hope it`s all correct,
d----------------------0-2-3-4---------------------------------------------------------------------| Im pretty sure it is though.
a--------------0-2-3-4-----------------------------------------------------------------------------|
e------0-2-3-4-------------------------------------------------------------------------------------|

Well Im not gonna repeat what Ive already done ok,Its too much
to write!
Just reapeat everything that happens after the solo,
Everything is here you need to know about the rest of the song.

Tabbed by Michael Fryar
[email protected]


Текст, аккорды и табулатура для песни "Hellbound", исполняет "Living End".
Используемые в песне аккорды можно найти в разделе Как брать аккорды. Аккорды для шестиструнной гитары. Другие песни можно найти на нашем сайте, воспользовавшись алфавитным указателем вверху страницы.


 
Ошибка в тексте? Выделите ошибку и нажмите Ctrl+Enter