C                   Am7                E               F
|------------0------|-------------3-0--|--------0------|--------1------|
|------1-------1----|-------1-0-1------|----------0----|----------1----|
|----------------0--|------------------|------------0--|------------0--|
|----2-----2--------|----2-------------|------2--------|------3--------|
|--3-----3----------|--0---------------|----2----------|----3----------|
|-------------------|------------------|--0------------|--1------------|

C                       Am7                E               F
|----------------0------|------------3-0--|--------0------|--------1------|
|------1-----1~3---1----|------1-0-1------|----------0----|----------1----|
|--------------------0--|-----------------|------------0--|------------0--|
|----2-----2------------|----2------------|------2--------|------3--------|
|--3-----3--------------|--0--------------|----2----------|----3----------|
|-----------------------|-----------------|--0------------|--1------------|

(through verses, repeat the intro or play the chords)

C    G  E              F
Anyone, caught in your mystery
Keep it angry, keep it whispy
I've fallen down, drunk on your juices

[Fm]

C            Em
Turn my head
Am
Turn my head
G             F
it's aimed at you

[C]

C     G       E             F
Funky temple, your dress is torn to shreds
Your eyes are crazy, I bowed to save my head and
I can't forget you, but I can't remember

Turn my head... (2x)

E                 F            E
Oh no, we came to love you all day
These bastards are leavin' somebody's got to stay
E           F                       G
Whatever we called you, it's just a name, just a name

[C]  [Em]  [Am]  [G]  [F]

Turn my head..
Turn my head..

[F]  [C]




Текст, аккорды и табулатура для песни "Turn My Head", исполняет "Live".
Используемые в песне аккорды можно найти в разделе Как брать аккорды. Аккорды для шестиструнной гитары. Другие песни можно найти на нашем сайте, воспользовавшись алфавитным указателем вверху страницы.


 
Ошибка в тексте? Выделите ошибку и нажмите Ctrl+Enter